need your love

[code]
(/) Slide Up (\) Slide Down (h) Hammer On (p) Pull Off (b) Bend (r) Release (v) Vibrato


E|-----------------------------------------
B|---------10--12------10--12------10------
G|--9--11----------11----------11------11--
D|-----------------------------------------
A|-----------------------------------------
E|-----------------------------------------



E|----------------------------------------------------
B|------------10--12------10------10------12--12--10--
G|--9--9--11----------11------11------11--------------
D|----------------------------------------------------
A|----------------------------------------------------
E|----------------------------------------------------



E|----------------------12----------------------------------------------------
B|------10--12--10--12------10--12--10--12------10--12------10------12b10-----
G|--11--------------------------------------11----------11------11------------
D|----------------------------------------------------------------------------
A|----------------------------------------------------------------------------
E|----------------------------------------------------------------------------
[/code]
[url]http://www.guitartabcreator.com[/url]
Guitar Tab Creator is intended to store guitar tab created through the tool. It currently does not support in-line text editing. Any text you place in here will be lost. If you need to comment on your tab, please use the "Tab Notes" section located below.