Beginning of mrs gren

(/) Slide Up  (\) Slide Down  (h) Hammer On  (p) Pull Off  (b) Bend (r) Release (v) Vibrato


E|------------------------------------------------------------------
B|------------------------------------------------------------------
G|------------------18----------15------------------18----------15--
D|--16--16--16--16------16--15------16--16--16--16------16--15------
A|------------------------------------------------------------------
E|------------------------------------------------------------------



E|------------------------------------------------------------------
B|------------------------------------------------------------------
G|------------------18----------15------------------18----------15--
D|--16--16--16--16------16--15------16--16--16--16------16--15------
A|------------------------------------------------------------------
E|------------------------------------------------------------------



E|--------------------------------------------------------------------------------------9---
B|----------------------------------------------------------------------12--11--12--11--10--
G|--12--11--12--11--12--11--9--7--9-----9--12--11--12--11--12--9--7--9--12--11--12--11--9---
D|--9---9---9---9---9---9---9--------9-----9---9---9---9----------------9---9---9---9---11--
A|-------------------------------------------------9---9----------------9---9---9---9---12--
E|--------------------------------------------------------------------------------------9---
http://www.guitartabcreator.com
Guitar Tab Creator is intended to store guitar tab created through the tool. It currently does not support in-line text editing. Any text you place in here will be lost. If you need to comment on your tab, please use the "Tab Notes" section located below.