The Chasm

(/) Slide Up  (\) Slide Down  (h) Hammer On  (p) Pull Off  (b) Bend (r) Release (v) Vibrato

E|---------------------------------------------------------------------------------------------
B|---------------------------------------------------------------------------------------------
G|-----------------------------------------------------------------------------------10--9--7--
D|-----------------------------------------5--3--2---------------------------------------------
A|--------5--------8--7--5--------8-----------------5--------5--------8--7--5------------------
E|--0--0-----0--0-----------0--0-----0--0--------------0--0-----0--0-----------0--0------------



E|----------------------------------------------------------------------------------------------
B|---------------5--6--8--10--------------------------------------------------------------------
G|----------------------------------------------------------------------------------------------
D|--8--10--8--7------------------------------------------------------5--3--2--------------------
A|----------------------------------5--------8--7--5--------8-----------------5--------5--------
E|----------------------------0--0-----0--0-----------0--0-----0--0--------------0--0-----0--0--



E|------------------------------------------------------------------------------------------
B|------------------------------------------------------------------------------------------
G|------------------------------------------------------------------------------------------
D|-----------------------------------------------------7-----8--7---------------------------
A|--8--3--2--7--8--7--5--------5--------8--7--5--------------------10-----------8--7--5-----
E|-----------------------0--0-----0--0-----------8--8-----8------------5--5--5-----------5--
http://www.guitartabcreator.com
Guitar Tab Creator is intended to store guitar tab created through the tool. It currently does not support in-line text editing. Any text you place in here will be lost. If you need to comment on your tab, please use the "Tab Notes" section located below.