troll

(/) Slide Up  (\) Slide Down  (h) Hammer On  (p) Pull Off  (b) Bend (r) Release (v) Vibrato


E|------------------------------------------------------------------
B|------------------------------------------------------------------
G|------------------------------------------------------------------
D|------------------------------------------------------------------
A|--0------0--0--0--3--------3--3--3--------------------0--3--2--0--
E|------------------------------------3--------3--3--3--------------



E|-------------------------------------|----------------------|-----
B|-------------------------------------|----------------------|-----
G|-------------------------------------|----------------------|-----
D|-------------------------------------|----------------------|-----
A|--7----15----10----12----15--14--12--|--7----5----10--9--7--|-----
E|-------------------------------------|----------------------|-----



E|-----------------|------------------|----------------------------|--
B|-----------------|------------------|----------------------------|--
G|-----------------|------------------|----------------------------|--
D|-----------------|------------------|----------------------------|--
A|--7----10--9--5--|--7----10--9--15--|--7----10--9--5--3----2--3--|--
E|-----------------|------------------|----------------------------|--
http://www.guitartabcreator.com
Guitar Tab Creator is intended to store guitar tab created through the tool. It currently does not support in-line text editing. Any text you place in here will be lost. If you need to comment on your tab, please use the "Tab Notes" section located below.