Tongue Tied

(/) Slide Up  (\) Slide Down  (h) Hammer On  (p) Pull Off  (b) Bend (r) Release (v) Vibrato

E|--------------------------------
B|--------------------------------
G|--------------------------------
D|--------------------------------
A|--------7--6-----------7--6-----
E|--0--0--------7--0--0--------7--



E|-----------------------------------------------
B|--------7--9--7--------------7--9--7-----------
G|--6--9-----------9--6--6--9-----------9--6--9--
D|-----------------------------------------------
A|-----------------------------------------------
E|-----------------------------------------------
http://www.guitartabcreator.com
Guitar Tab Creator is intended to store guitar tab created through the tool. It currently does not support in-line text editing. Any text you place in here will be lost. If you need to comment on your tab, please use the "Tab Notes" section located below.