There Are No Nations

(/) Slide Up  (\) Slide Down  (h) Hammer On  (p) Pull Off  (b) Bend (r) Release (v) Vibrato
E|------------------------------------------------------------------------------------------------
B|------------------------------------------------------------------------------------------------
G|------------------------------------------------------------------------------------------------
D|--5--5----5----5--5----5----5--5----5----5--5----5----7--7----7----7--7----7----7--7----7-------
A|--5--5----5----5--5----5----5--5----5----5--5----5----7--7----7----7--7----7----7--7----7-------
E|--3--3----3----3--3----3----3--3----3----3--3----3----5--5----5----5--5----5----5--5----5-------



E|-----------------------------------------------------------------------------------------------
B|-----------------------------------------------------------------------------------------------
G|-----------------------------------------------------------------------------------------------
D|--7--7----7----5--5----5------5--5----5----5--5----5----5--5----5----7--7------7----7--7----7--
A|--7--7----7----5--5----5------5--5----5----5--5----5----5--5----5----7--7------7----7--7----7--
E|--5--5----5----3--3----3------3--3----3----3--3----3----3--3----3----5--5------5----5--5----5--



E|----------------------------
B|----------------------------
G|----------------------------
D|--7--7------7----7--7----7--
A|--7--7------7----7--7----7--
E|--5--5------5----5--5----5--



E|--------------------------------------
B|---------2---------5--5---------5--5--
G|--5------2---------4--4---------4--4--
D|--5------2------2--2--2----2----2--2--
A|--3------0------2--2--2----2----2--2--
E|----------------0--0--0----0----0--0--



E|-------------------------------------------------------------------------------------------------
B|--5/8--5--5--8--5--------5--8--5----5--8--5--5--8--5-----------5----5--8--5--5--8--5-------------
G|-------------------8--5-------------------------------8--5--8-------------------------8--5----8--
D|--2-5--2----------------------------2--5--2-------------------------2--5--2----------------------
A|-------------------------------------------------------------------------------------------------
E|-------------------------------------------------------------------------------------------------



E|-----
B|-----
G|--2--
D|-----
A|-----
E|-----



E|--
B|--
G|--
D|--
A|--
E|--



E|--
B|--
G|--
D|--
A|--
E|--



E|--
B|--
G|--
D|--
A|--
E|--



E|-----------------------------------------------------------------
B|--5--8--5--5--8--5-----------8--5--5--8--5--5--8--5-----------5--
G|--------------------8--5--8--------------------------8--5--8-----
D|--2--5--2--------------------------2--5--2-----------------------
A|-----------------------------------------------------------------
E|-----------------------------------------------------------------



E|-----------------------------------------------------------------
B|--5--8--5--5--8--5-----------8--5--5--8--5--5--8--5--------------
G|--------------------8--5--8--------------8-----------8--5--8--2--
D|--2--5--2--------------------------2--5--2-----------------------
A|-----------------------------------------------------------------
E|-----------------------------------------------------------------



E|-----------------------------------------
B|-----------------------------------------
G|--7----7----------------9--9-------9--9--
D|--7----7------9----2----9--9--2----9--9--
A|--5----6------9----2----7--7--2----7--7--
E|--------------7----0----------0----------



E|----------------------------------
B|--5--8--5--6--9--6--7--10--7--11--
G|----------------------------------
D|----------------------------------
A|----------------------------------
E|----------------------------------



E|--17------------------------------------------17----------------------------------------------
B|------17------------------------------------------17------------------15------17--15------17--
G|----------16--15--14--12----------12--14--------------18--15------16------------------16------
D|--------------------------13--14------------------------------17----------17------------------
A|----------------------------------------------------------------------------------------------
E|----------------------------------------------------------------------------------------------



E|-----------------------------
B|-----------------------------
G|--------------------------4--
D|--11--12--14--15--14---------
A|-----------------------------
E|-----------------------------
http://www.guitartabcreator.com
Guitar Tab Creator is intended to store guitar tab created through the tool. It currently does not support in-line text editing. Any text you place in here will be lost. If you need to comment on your tab, please use the "Tab Notes" section located below.