Shame On You

(/) Slide Up  (\) Slide Down  (h) Hammer On  (p) Pull Off  (b) Bend (r) Release (v) Vibrato

E|-------------------------------------------------------------------------------------------------
B|--15--15--15--15--15--15--15--15--15--15--15--15--16--16--16--16--16--16--17--17--17--17--17-----
G|-------------------------------------------------------------------------------------------------
D|-------------------------------------------------------------------------------------------------
A|-------------------------------------------------------------------------------------------------
E|-------------------------------------------------------------------------------------------------



E|------14--14--14--14--14--14--14--14--14--14--14--14--15--15--15--15--15--15--15--15--15--15--
B|--17------------------------------------------------------------------------------------------
G|----------------------------------------------------------------------------------------------
D|----------------------------------------------------------------------------------------------
A|----------------------------------------------------------------------------------------------
E|----------------------------------------------------------------------------------------------



E|--15--15--------------------------------------------------------------------------------------
B|----------15--15--15--15--15--15--15--15--15--15--15--15--16--16--16--16--16--16--17--17--17--
G|----------------------------------------------------------------------------------------------
D|----------------------------------------------------------------------------------------------
A|----------------------------------------------------------------------------------------------
E|----------------------------------------------------------------------------------------------



E|--------------14--14--14--14--14--14--14--14--14--14--14--14--15--15--15--15--15--15--15--15--
B|--17--17--17----------------------------------------------------------------------------------
G|----------------------------------------------------------------------------------------------
D|----------------------------------------------------------------------------------------------
A|----------------------------------------------------------------------------------------------
E|----------------------------------------------------------------------------------------------



E|--15--15--15--15--14--14--14--14--14--14--14--14--14--14--14--14--------------------------
B|------------------------------------------------------------------17--17--17--17--17--17--
G|------------------------------------------------------------------------------------------
D|------------------------------------------------------------------------------------------
A|------------------------------------------------------------------------------------------
E|------------------------------------------------------------------------------------------



E|--------------------------15--15--15--15--15--15--15--15--15--15--15--15--14--14--14--14--
B|--15--15--15--15--15--15------------------------------------------------------------------
G|------------------------------------------------------------------------------------------
D|------------------------------------------------------------------------------------------
A|------------------------------------------------------------------------------------------
E|------------------------------------------------------------------------------------------



E|--14--14--14--14--14--14--14--14----------------------------------------------------------
B|----------------------------------15--15--15--15--15--15--15--15--15--15--15--15--16--16--
G|------------------------------------------------------------------------------------------
D|------------------------------------------------------------------------------------------
A|------------------------------------------------------------------------------------------
E|------------------------------------------------------------------------------------------



E|------------------------------------------15--15--15--15--15--15--15--15--15--15--15--15--
B|--16--16--16--16--17--17--17--17--17--17--------------------------------------------------
G|------------------------------------------------------------------------------------------
D|------------------------------------------------------------------------------------------
A|------------------------------------------------------------------------------------------
E|------------------------------------------------------------------------------------------



E|--15b
B|-----
G|-----
D|-----
A|-----
E|-----



E|-------------------------------------------------------------------------------------------------
B|--11--12--15--11--12--15--11--12--15--11--12--15--11--12--15--11--12--15--11--12--15--11--12-----
G|-------------------------------------------------------------------------------------------------
D|-------------------------------------------------------------------------------------------------
A|-------------------------------------------------------------------------------------------------
E|-------------------------------------------------------------------------------------------------



E|------12--------------12--------------12--------------12------------------15---------------------
B|--15------15--12--11------15--12--11------15--12--11------15--12--11----------15--17-------------
G|--------------------------------------------------------------------------------------15---------
D|-------------------------------------------------------------------------------------------------
A|------------------------------------------------------------------------------------------13-----
E|-------------------------------------------------------------------------------------------------
http://www.guitartabcreator.com
Guitar Tab Creator is intended to store guitar tab created through the tool. It currently does not support in-line text editing. Any text you place in here will be lost. If you need to comment on your tab, please use the "Tab Notes" section located below.