Modern Classic

(/) Slide Up  (\) Slide Down  (h) Hammer On  (p) Pull Off  (b) Bend (r) Release (v) Vibrato

E|--12------13------10--------13--12--13--12--
B|--13------15------11--------15--13--15--13--
G|--14------15------12--------15--14--15--14--
D|--------------------------------------------
A|--------------------------------------------
E|--------------------------------------------



E|--------------------0--
B|--------------------0--
G|--------------------2--
D|------7--9--10--12--3--
A|------7--9--10--12--3--
E|------5--7--8---10--1--



E|--------------------12--
B|--------------------13--
G|--------------------14--
D|--7--5--10--11--12------
A|--7--5--10--11--12------
E|--5--3--8---9---10------



E|------------------------------14--12---------------------------------------------------------
B|--12--13--12------12------------------13------12--------12--13--12------12-------------------
G|--------------14------14--12--------------14------------------------14------12--10--7--5--4--
D|---------------------------------------------------------------------------------------------
A|---------------------------------------------------------------------------------------------
E|---------------------------------------------------------------------------------------------



E|------------------------14--12-----------------
B|--13----------------------------13\15--13------
G|------12--14b16b14--12-------------------------
D|-----------------------------------------------
A|-----------------------------------------------
E|-----------------------------------------------



E|------------------------------12--14--15----14--15--14--12----------12--
B|--12--13--12------12--13--16--------------------------------16--12------
G|--------------14--------------------------------------------------------
D|------------------------------------------------------------------------
A|------------------------------------------------------------------------
E|------------------------------------------------------------------------
http://www.guitartabcreator.com
Guitar Tab Creator is intended to store guitar tab created through the tool. It currently does not support in-line text editing. Any text you place in here will be lost. If you need to comment on your tab, please use the "Tab Notes" section located below.