Anybody's Fault

(/) Slide Up  (\) Slide Down  (h) Hammer On  (p) Pull Off  (b) Bend (r) Release (v) Vibrato


E|--5-----------5--3--1--0--
B|--6--6-----------5--3--2--
G|--7-----7--------5--3--2--
D|--7--------7-----5--3--2--
A|--------------------------
E|--------------------------



E|--13------------6--8---13--13--
B|--15--8---6--5--8--10--15--15--
G|--14--9---7--6--7--9---14--14--
D|------10--8--7-----------------
A|-------------------------------
E|-------------------------------



E|--5--1--5--1--
B|--6--3--6--3--
G|--7--3--7--3--
D|--7--3--7--3--
A|--------------
E|--------------
http://www.guitartabcreator.com
Guitar Tab Creator is intended to store guitar tab created through the tool. It currently does not support in-line text editing. Any text you place in here will be lost. If you need to comment on your tab, please use the "Tab Notes" section located below.