Acoustic

(/) Slide Up  (\) Slide Down  (h) Hammer On  (p) Pull Off  (b) Bend (r) Release (v) Vibrato
E|-----------------------------------|-----------------------------------|-----------------
B|-----------------------------------|-----------------------------------|-----------------
G|---------0---------------0-------0-|---------0---------------0-------0-|---------0-------
D|-----2-----2---2-----2-----2-0h2---|-----0-----0---0-----0-----0-0h2---|-----2-----2---2-
A|---2---2-----2-----2---2-----------|---2---2-----2-----2---2-----------|---2---2-----2---
E|-0---------------0-----------------|-3---------------3-----------------|-0---------------



E|-------------------|-----------------------------------|-
B|-------------------|-----------------------------------|-
G|---------0-------0-|---------0---------------2-0-----0-|-
D|-----2-----2-0h2---|-----0-----0---0-----0-------0h2---|-
A|---2---2-----------|---2---2-----2-----0---0-----------|-
E|-0-----------------|-3---------------2-----------------|-



E|---------0-----------------------|-------------------------------------|-----------------
B|-------------------------0-------|-----------------1-0-----0---0-------|-----------------
G|---------------------------------|---------0---0-0-----0h2---0-------0-|---------0-------
D|-----2-----2---2-----2-----2---2-|-----0-----0-------------------0h2---|-----2-----2---2-
A|---2---2-----2-----2---2-----2---|---2---2-----------------------------|---2---2-----2---
E|-0---------------0---------------|-3-----------------------------------|-0---------------



E|-------------------|-----------------------------------|-
B|-------------------|-----------------------------------|-
G|---------0-------0-|---------0---------------2-0-----0-|-
D|-----2-----2-0h2---|-----0-----0---0-----0-------0h2---|-
A|---2---2-----------|---2---2-----2-----0---0-----------|-
E|-0-----------------|-3---------------2-----------------|-



E|-----------------------------------|-----------------------------------|-----------------
B|-----------------------------------|-----------------5---3-------------|-----------------
G|---------0---------------0-------0-|---------0---------4---4-4\2-0-2-0-|---------0-------
D|-----2-----2---2-----2-----2-0h2---|-----0-----0---0-------------------|-----2-----2---2-
A|---2---2-----2-----2---2-----------|---2---2-----2---------------------|---2---2-----2---
E|-0---------------0-----------------|-3---------------------------------|-0---------------



E|----------------------------|----------------------------------------------------|--|--
B|----------------------------|----------------------------------------------------|--|--
G|--------------0----------0--|--------------0-----------------------2--0-------0--|--|--
D|--------2--------2--0h2-----|--------0--------0-----0--------0-----------0h2-----|--|--
A|-----2-----2----------------|-----2-----2--------2--------0-----0----------------|--|--
E|--0-------------------------|--3-----------------------2-------------------------|--|--



E|-----------------------0---------------3-0-----------------------|-
B|-2-----5-----4-----------4-------------------5---------5-4-------|-
G|-2-2-----2---------2---------2-----2---------------2-------2p0---|-
D|-2---2-----5-----4---4-----4-----5---5-----5-----4---4---------2-|-
A|-0-------------0---------------0---------------0---------------2-|-
E|---------------------------------------------------------------0-|-



E|-----------------------------------------------------|---
B|--2------2-----4-------4-----5-------5-----7---7-7-9-|---
G|--2------2-----4-------4-----5-------5-----7---7-7-9-|---
D|--2------2-----4-------4-----5-------5-----7---7-7-9-|---
A|--0-0-0----0-0---0-0-0---0-0---0-0-0---0-0---0-------|---
E|-----------------------------------------------------|---



E|-----0-------0-------0-------0-----3-3-3-2-3-2h3p2p0-2-0h2p0-------------
B|-------0-3b4---0-------0-3b4---0-----------------------------3p2p0-2p----
G|-2b3-------------2b3-------------0---------------------------------------
D|-------------------------------------------------------------------------
A|-------------------------------------------------------------------------
E|-------------------------------------------------------------------------
http://www.guitartabcreator.com
Guitar Tab Creator is intended to store guitar tab created through the tool. It currently does not support in-line text editing. Any text you place in here will be lost. If you need to comment on your tab, please use the "Tab Notes" section located below.