Y&T - Winds Of Change

(/) Slide Up  (\) Slide Down  (h) Hammer On  (p) Pull Off  (b) Bend (r) Release (v) Vibrato


E|--------------------------0-----------------------0--------0--------------0--------0--3--
B|--------------------3--------3--------------3--------3-----------------------1--------0--
G|-----------------2-----2-----------------2-----2--------2-----------0-----------0-----0--
D|--------3--2--0-----------------0--2--3--------------------------2-----2--------------0--
A|--0--3--------------------------------------------------------3-----------------------2--
E|--------------------------------------------------------------------------------------3--



E|----------------------------
B|----------------------------
G|--3----3--3----5----5--5----
D|--3----3--3----5----5--5----
A|--1----1--1----3----3--3----
E|----------------------------
http://www.guitartabcreator.com
Guitar Tab Creator is intended to store guitar tab created through the tool. It currently does not support in-line text editing. Any text you place in here will be lost. If you need to comment on your tab, please use the "Tab Notes" section located below.