Bluesgrass D Fills

(/) Slide Up  (\) Slide Down  (h) Hammer On  (p) Pull Off  (b) Bend (r) Release (v) Vibrato


E|--------------------------------------------------
B|--------------------------------------------------
G|--------------2--------2--4--3--2--0--------------
D|--0--2--3--4-----3--4-----------------2--3--4--0--
A|--------------------------------------------------
E|--------------------------------------------------



E|-------------------------------
B|-------------------------------
G|---2-1---1-0---0---------------
D|-0-----0-----3---3/4-0---------
A|-----------------------0-3/4-5-
E|-------------------------------
http://www.guitartabcreator.com
Guitar Tab Creator is intended to store guitar tab created through the tool. It currently does not support in-line text editing. Any text you place in here will be lost. If you need to comment on your tab, please use the "Tab Notes" section located below.