Baby I dont buy it at all DROPPED D

(/) Slide Up  (\) Slide Down  (h) Hammer On  (p) Pull Off  (b) Bend (r) Release (v) Vibrato


E|-----------------
B|-----------------
G|-----------------
D|-----------------
A|-----------------
E|--2--2--2--2--2--



E|--------------------------------------
B|--------------------------------------
G|--------------------------------------
D|--------------------------------------
A|-----------0--0--0--3--3--3-----------
E|--2--2--2--------------------0--0--0--



E|--------------------------------------------------
B|--------------------------------------------------
G|--------------------------------------------------
D|--------------------------------------------------
A|--------------------------------------0--0--0--0--
E|--2--2--2--2--2--2--2--2--0--0--0--0--------------



E|------------------------------------------
B|------------------------------------------
G|------------------------------------------
D|------------------------------------------
A|--------5--------5--------5-----9--9--10--
E|--2--2-----2--2-----5--5-----0------------



E|-----------------------------------------------------------------------------------------------
B|-----------------------------------------------------------------------------------------------
G|-----------------------------------------------------------------------------------------------
D|-----------------------------------------------------------------------------------------------
A|--3--3--3--3--3--3--3--3-----------------------------------------------------------------------
E|--------------------------0--0--0--0--0--0--0--0--5--5--5--5--5--5--5--2--2--2--2--2--2--2--0--



E|--
B|--
G|--
D|--
A|--
E|--



E|-------------------------------------------------------------------------------------------------
B|-------------------------------------------------------------------------------------------------
G|-------------------------------------------------------------------------------------------------
D|-------------------------------------------------------------------------------------------------
A|-------------------------------------------------------------------------------------------------
E|--2--2--2--2--2--2--2--2--2--2--2--2--2--2--2--2--5--5--8--5--8--5--5--5--8--8--11--8--11--8--8--



E|--------------------------------------------------------------
B|--------------------------------------------------------------
G|--------------------------------------------------------------
D|--------------------------------------------------------------
A|--------------------------------------------------------------
E|--2--2--2--0--2--2--2--2--0--2--5--5--5--5--5--8--8--8--8--8--



E|--------------------
B|--------------------
G|--------------------
D|--------------------
A|--------------------
E|--2--1--2--8--8--7--



E|-----------------------------------------------------------------------------------------------
B|-----------------------------------------------------------------------------------------------
G|-----------------------------------------------------------------------------------------------
D|-----------------------------------------------------------------------------------------------
A|--3--3--3--3--3--3--3--3-----------------------------------------------------------------------
E|--------------------------0--0--0--0--0--0--0--5--5--5--5--5--5--5--5--2--2--2--2--2--2--2--0--



E|-----------
B|-----------
G|-----------
D|-----------
A|--3--------
E|-----0--2--
http://www.guitartabcreator.com
Guitar Tab Creator is intended to store guitar tab created through the tool. It currently does not support in-line text editing. Any text you place in here will be lost. If you need to comment on your tab, please use the "Tab Notes" section located below.