Don't Know Yet

(/) Slide Up  (\) Slide Down  (h) Hammer On  (p) Pull Off  (b) Bend (r) Release (v) Vibrato

Stave 1:

E|---------------------------------------------------2---2---2---2-
B|---1---1---1---1---1---1---1---1---0---0---0---0-----------------
G|-----------------------------------------------------------------
D|-2---2---2---2-----------------------------------0---0---0---0---
A|-----------------3---3---3---3-----------------------------------
E|---------------------------------3---3---3---3-------------------

Stave 2:

E|---------------------------------------------------2---2---2---2-
B|---1---1---1---1---1---1---1---1---0---0---0---0-----------------
G|-----------------------------------------------------------------
D|-2---2---2---2-----------------------------------0---0---0---0---
A|-----------------3---3---3---3-----------------------------------
E|---------------------------------3---3---3---3-------------------

Stave 3:

E|-------------------------------------------------------------------------------------------
B|-----1-----1-----1-----1---1-------1-----1-----1-----1---1-------0-----0-----0-----0---0---
G|-------------------------------------------------------------------------------------------
D|-2-2---2-2---2-2---2-2---2---2-------------------------------------------------------------
A|-------------------------------3-3---3-3---3-3---3-3---3---3-------------------------------
E|-------------------------------------------------------------3-3---3-3---3-3---3-3---3---3-

Stave 4:

E|-----2-----2-----2-----2---2---
B|-------------------------------
G|-------------------------------
D|-0-0---0-0---0-0---0-0---0---0-
A|-------------------------------
E|-------------------------------

Stave 5:

E|-------------------------------------------------------------------------------------------
B|-----1-----1-----1-----1---1-------1-----1-----1-----1---1-------0-----0-----0-----0---0---
G|-------------------------------------------------------------------------------------------
D|-2-2---2-2---2-2---2-2---2---2-------------------------------------------------------------
A|-------------------------------3-3---3-3---3-3---3-3---3---3-------------------------------
E|-------------------------------------------------------------3-3---3-3---3-3---3-3---3---3-

Stave 6:

E|-----2-----2-----2-----2---2---
B|-------------------------------
G|-------------------------------
D|-0-0---0-0---0-0---0-0---0---0-
A|-------------------------------
E|-------------------------------

http://www.guitartabcreator.com
Guitar Tab Creator is intended to store guitar tab created through the tool. It currently does not support in-line text editing. Any text you place in here will be lost. If you need to comment on your tab, please use the "Tab Notes" section located below.