test

(/) Slide Up  (\) Slide Down  (h) Hammer On  (p) Pull Off  (b) Bend (r) Release (v) Vibrato
E|---------------------------------------------------------------------------------------------------
B|------------------------12b14b12--12b14b12p10--12--12--12--12p10-----------------------------------
G|--------9h11--11p9------------------------------------------------11-----------11p9------11p9------
D|--9/11--------------11------------------------------------------------------9--------11--------11--
A|----------------------------------------------------------------------9h11-------------------------
E|---------------------------------------------------------------------------------------------------



E|-----------------------------------------------------9----------------------------------------
B|--------------------------------------------10/12-------10--10/12-----------2----2--2---------
G|--11p9--------------------------------9h11----------------------------------3----3--3--2------
D|--------11--9------------9------9h11----------------------------------------4----4--4--2------
A|---------------11--9h11-----11-------------------------------------------4--4----4--4--0------
E|----------------------------------------------------------------------------------------------



E|----------------------------------------------------------------------------------------------
B|----------------------------------------------------------------------------------------------
G|-------2h4/6--4p2--4-------------------2-----2--4b6b4p2--4p2------------2h4p2-----------------
D|--2h4--------------------------2h4--4-----4-------------------4------4----------------2h4-----
A|--------------------------2h4----------------------------------------------------2h4----------
E|----------------------------------------------------------------------------------------------



E|-----------------------
B|-----------------------
G|--2-----2--4b5--2------
D|-----4-----------------
A|-----------------------
E|-----------------------
http://www.guitartabcreator.com
Guitar Tab Creator is intended to store guitar tab created through the tool. It currently does not support in-line text editing. Any text you place in here will be lost. If you need to comment on your tab, please use the "Tab Notes" section located below.