Sultans of Swing Solo 1

(/) Slide Up  (\) Slide Down  (h) Hammer On  (p) Pull Off  (b) Bend (r) Release (v) Vibrato


E|-----------------------------------------------------------------------9--12b13r12--10--------------
B|-------------------------------------------------------------------10-------------------10----------
G|--12b14----12b14--12b14--12b14--10h12p10--9h10p9--7-------------9---------------------------10------
D|-----------------------------------------------------7------11----------------------------------12--
A|--------------------------------------------------------12------------------------------------------
E|----------------------------------------------------------------------------------------------------



E|--------------------------------------------------------------13---------------------
B|--10--13--11h13p11--9h10--11--9h10-----------------13-------------13-----------------
G|--------------------------------------------12b14------12b14----------14r12--10--10--
D|------------------------------------11-----------------------------------------------
A|-------------------------------------------------------------------------------------
E|-------------------------------------------------------------------------------------



E|--7/13--12-----------------------------------------------------------------
B|------------13--------------13--13------13b15--13b15r13--11--13b15--13b15--
G|----------------12--14--12-------------------------------------------------
D|---------------------------------------------------------------------------
A|---------------------------------------------------------------------------
E|---------------------------------------------------------------------------



E|------13p10------10-----------------------------------------------------------------------
B|--10---------10------13b15--10--10--------------------3--6p3--------5--6--6/8--6--5--6/8--
G|------------------------------------12--10---------3-------------5------------------------
D|------------------------------------------------3-------------5---------------------------
A|------------------------------------------------------------------------------------------
E|------------------------------------------------------------------------------------------



E|-----------------------------------------------------------
B|--------3--6p3------------------------8--------------------
G|-----3----------3/5-----5--7--5--7b9-----9r7--5--7--7------
D|--3------------------5-------------------------------------
A|-----------------------------------------------------------
E|-----------------------------------------------------------
http://www.guitartabcreator.com
Guitar Tab Creator is intended to store guitar tab created through the tool. It currently does not support in-line text editing. Any text you place in here will be lost. If you need to comment on your tab, please use the "Tab Notes" section located below.