Little Wing

(/) Slide Up  (\) Slide Down  (h) Hammer On  (p) Pull Off  (b) Bend (r) Release (v) Vibrato
E|---------------------------------------------------------------------------------2-----4--2-----
B|------------------------------------------5------------3--3p2-----------------------2-----------
G|-----------------------------------2h4/6-----6\4--2h4----------4p2--4p2-------------------------
D|-------2--4--2h4--2-----2-----2h4----------------------------------------4p2--4-----------------
A|--2/4----------------4--------------------------------------------------------------------------
E|---------------------------2--------------------------------------------------------------------



E|--------------------------2--2--2p0--0-----------3-----------5-----------7--7--7--9---5--7--
B|--2h4p2----------5--4--3--3--3-------2--2--------3-----------5-----------7--7--7--9---5--7--
G|--------------6--6--5--4--2--2-------2-----2-----4--4--------6--6--------8--8--8--10--6--8--
D|---------4/6-----6--5--4-------------2--------2--5-----5-----7-----7-----9--9--9--11--7--9--
A|-----------------4--3--2-------------0-----------5--------5--7--------7--9--9--9--11--7--9--
E|-----------------4--3--2-------------------------3-----------5-----------7--7--7--9---5--7--



E|-----------------------------------------------------------------------10p9---------------------
B|--12b14b12--10\9------------------------------------------------10/12--------12--10--9h10p9-----
G|------------------11--11p9----------------9--------9------9h11---------------------------------
D|----------------------------11p9\7--9/11-----9h11-----11----------------------------------------
A|------------------------------------------------------------------------------------------------
E|------------------------------------------------------------------------------------------------



E|----------------------------------------------------------------------------
B|-------------10----------------------10/12--10p9----9--10--12--10--9--10----
G|--11--9--11------------9------9--11-----------------------------------------
D|-----------------9h11-----11------------------------------------------------
A|----------------------------------------------------------------------------
E|----------------------------------------------------------------------------
http://www.guitartabcreator.com
Guitar Tab Creator is intended to store guitar tab created through the tool. It currently does not support in-line text editing. Any text you place in here will be lost. If you need to comment on your tab, please use the "Tab Notes" section located below.