SlowBlues

(/) Slide Up  (\) Slide Down  (h) Hammer On  (p) Pull Off  (b) Bend (r) Release (v) Vibrato


E|-------------5------------|--------10b12--10--10----------10b12r10b12--|--
B|----------5-----7/10--10--|-----------------------10--10---------------|--
G|--5--7b9------------------|--------------------------------------------|--
D|--------------------------|--------------------------------------------|--
A|--------------------------|--------------------------------------------|--
E|--------------------------|--------------------------------------------|--



E|--10b12--10--10-----------|------------------|--
B|-----------------12--12v--|--8---------------|--
G|--------------------------|-----9\7b8r7--5v--|--
D|--------------------------|------------------|--
A|--------------------------|------------------|--
E|--------------------------|------------------|--



E|-------------5--------7--5h6p5--------|-------------5-------------------------|--
B|----------5-----8--5------------8--5--|----------5-----8--5-------------------|--
G|--5--7b9------------------------------|--5--7b9--------------7b9r7--5-----5v--|--
D|--------------------------------------|--------------------------------7------|--
A|--------------------------------------|---------------------------------------|--
E|--------------------------------------|---------------------------------------|--



E|-----------------------------------|-------------5-------5h7--5h6p5--------|--
B|-----------------------------------|----------5-----8b9--------------8--5--|--
G|-----------------------------------|--5--7b9-------------------------------|--
D|--5h7--5---------------------7--7--|---------------------------------------|--
A|----------7--6--5h6p5--------------|---------------------------------------|--
E|-----------------------8--5--------|---------------------------------------|--



E|-------------5------------8b10--|--10b12r10--8--------------8----------8-------------|-------
B|----------5-----7/10--10--------|---------------10--10--10-----10--10-----10-----8v--|------r
G|--5--7b9------------------------|---------------------------------------------9------|-------
D|--------------------------------|----------------------------------------------------|-------
A|--------------------------------|----------------------------------------------------|-------
E|--------------------------------|----------------------------------------------------|-------
http://www.guitartabcreator.com
Guitar Tab Creator is intended to store guitar tab created through the tool. It currently does not support in-line text editing. Any text you place in here will be lost. If you need to comment on your tab, please use the "Tab Notes" section located below.