LonnieJohnston

(/) Slide Up  (\) Slide Down  (h) Hammer On  (p) Pull Off  (b) Bend (r) Release (v) Vibrato


E|-------3--5--5b6--3-----3--|-----8--10------------------------------------|--
B|--4/5----------------5-----|--5---------10b11--10b11--10b11--8--10-----8--|--
G|---------------------------|----------------------------------------9-----|--
D|---------------------------|----------------------------------------------|--
A|---------------------------|----------------------------------------------|--
E|---------------------------|----------------------------------------------|--



E|--------------|--12b13--10--6b7---------------------|--3--5b6--5b6--5b6--3--|--
B|--10b11p10p8--|------------------8--6---------------|-----------------------|--
G|--------------|------------------------7--5--3b4r3--|-----------------------|--
D|--------------|-------------------------------------|-----------------------|--
A|--------------|-------------------------------------|-----------------------|--
E|--------------|-------------------------------------|-----------------------|--



E|-------------------------------3--|-----5-----6-----7--|-----
B|--3--5b6--5--3-----------3--5-----|--------------------|-----
G|----------------5--3--4-----------|--5-----6-----7-----|-----
D|----------------------------------|--------------------|-----
A|----------------------------------|--------------------|-----
E|----------------------------------|--------------------|-----
http://www.guitartabcreator.com
Guitar Tab Creator is intended to store guitar tab created through the tool. It currently does not support in-line text editing. Any text you place in here will be lost. If you need to comment on your tab, please use the "Tab Notes" section located below.