LarryCarlton

(/) Slide Up  (\) Slide Down  (h) Hammer On  (p) Pull Off  (b) Bend (r) Release (v) Vibrato


E|-----------------|-------------------------------|----------------------------------|-
B|-12b14-10-12-10v-|-12b14-12b14-10-12-12b14-10-10-|-12b14-10-12p10-12b14-10-10-10h12-|-
G|-----------------|-------------------------------|----------------------------------|-
D|-----------------|-------------------------------|----------------------------------|-
A|-----------------|-------------------------------|----------------------------------|-
E|-----------------|-------------------------------|----------------------------------|-



E|----------------------10----------|-12b14-12-10-12----------|-10b12-10p8-10p8-------------|-
B|-10-10-12b14-14-14-14----12b14-10-|----------------12-14-12-|-----------------10b13-10-10-|-
G|----------------------------------|-------------------------|-----------------------------|-
D|----------------------------------|-------------------------|-----------------------------|-
A|----------------------------------|-------------------------|-----------------------------|-
E|----------------------------------|-------------------------|-----------------------------|-



E|-----5-8b10-8-5-7b8-7b8-5-|-
B|-5/7----------------------|-
G|--------------------------|-
D|--------------------------|-
A|--------------------------|-
E|--------------------------|-
http://www.guitartabcreator.com
Guitar Tab Creator is intended to store guitar tab created through the tool. It currently does not support in-line text editing. Any text you place in here will be lost. If you need to comment on your tab, please use the "Tab Notes" section located below.