FreddieKing

(/) Slide Up  (\) Slide Down  (h) Hammer On  (p) Pull Off  (b) Bend (r) Release (v) Vibrato


E|--------------------|--12b14--12--10v--|--12b14--12--10------10--|--
B|--------------------|------------------|-----------------12------|--
G|--7-----------------|------------------|-------------------------|--
D|-----9--9--7--------|------------------|-------------------------|--
A|--------------9\11--|------------------|-------------------------|--
E|--------------------|------------------|-------------------------|--



E|---------------------------------------------7--------------|--
B|--10b12--10--7--------7-------------------------------------|--
G|----------------9b10-----9b10r9--7--9--7-----------7--------|--
D|------------------------------------------9-----9-----9--7--|--
A|------------------------------------------------------------|--
E|------------------------------------------------------------|--



E|----------------9b11--7--9-----7---------------|--
B|-------7--9--7--------------9-----10-----------|--
G|--7h8---------------------------------9b10--7--|--
D|-----------------------------------------------|--
A|-----------------------------------------------|--
E|-----------------------------------------------|--
http://www.guitartabcreator.com
Guitar Tab Creator is intended to store guitar tab created through the tool. It currently does not support in-line text editing. Any text you place in here will be lost. If you need to comment on your tab, please use the "Tab Notes" section located below.