CharlieChristian

(/) Slide Up  (\) Slide Down  (h) Hammer On  (p) Pull Off  (b) Bend (r) Release (v) Vibrato

E|--------5---------------------------|--10\7--5----------------------|--
B|-----6-----6-----9--8--6--8v--6-----|-----------6-----6--8b9--6--8--|--
G|--7-----------7------------------7--|--------------7----------------|--
D|------------------------------------|-------------------------------|--
A|------------------------------------|-------------------------------|--
E|------------------------------------|-------------------------------|--



E|--------4/5--4/5--------------------|--------------------|----------------------|--
B|-----6------------6--6--------------|--------------------|----------------------|--
G|--7---------------------7--7--------|-----7--------7-----|----------------------|--
D|------------------------------7--7--|--7-----7--5-----5--|--3-----3--5/7--3-----|--
A|------------------------------------|--------------------|-----5-------------5--|--
E|------------------------------------|--------------------|----------------------|--



E|--------------------|-------------------------|--
B|--------------------|-------------6--6--------|--
G|--------------------|-------5--7--------7--7--|--
D|-----------3--5/7v--|--6/7--------------------|--
A|--5--3--5-----------|-------------------------|--
E|--------------------|-------------------------|--



E|--------------------5------------------------------------------|--10--8-----------------
B|-----------5--6--8-----8--6--5-----5---------------------------|---------10\8p6------6--
G|--7--6--7-----------------------6-----7------------------------|-----------------7v-----
D|-----------------------------------------7\5p3--5/6\5p3--------|------------------------
A|---------------------------------------------------------5--5--|------------------------
E|---------------------------------------------------------------|------------------------



E|--13--10-----------------------------------------------------------------------|--
B|----------13--10---------------------------------------------------------------|--
G|------------------12/13--12--10--12p10-----------------------------------------|--
D|----------------------------------------12p10----------------------------------|--
A|-----------------------------------------------12--11--10------10------8-------|--
E|-----------------------------------------------------------10------10-----10v--|--



E|------------------------|-------------------------|-------------------------------------|--
B|------------------------|---------------------13--|--13--13--13--13---------------------|--
G|------------------------|----------10--12/14------|--14--14--14--14--13\12--10------10--|--
D|----------------10--12--|--10--12-----------------|--13--13--13--13-------------12------|--
A|--8------10/12----------|-------------------------|-------------------------------------|--
E|-----10-----------------|-------------------------|-------------------------------------|--



E|--8--9--8h9p8-----------------|-----------------
B|---------------11--9----------|-----------------
G|----------------------12--10--|--13\12--10------
D|------------------------------|-------------12--
A|------------------------------|-----------------
E|------------------------------|-----------------
http://www.guitartabcreator.com
Guitar Tab Creator is intended to store guitar tab created through the tool. It currently does not support in-line text editing. Any text you place in here will be lost. If you need to comment on your tab, please use the "Tab Notes" section located below.