BuildingBlocksBox1

(/) Slide Up  (\) Slide Down  (h) Hammer On  (p) Pull Off  (b) Bend (r) Release (v) Vibrato


E|-------------5-----7--5--|---------------5-------5--|------------5----------|--
B|----------5-----8--------|------------5-----8b9-----|---------------5--8b9--|--
G|--5--7b9-----------------|----5--7b9----------------|----5--7b9-------------|--
D|-------------------------|--------------------------|-----------------------|--
A|-------------------------|--------------------------|-----------------------|--
E|-------------------------|--------------------------|-----------------------|--



E|-------------5--------|--7--5h7p5-----5--------|--7--5h7p5--------|--
B|----------5-----------|------------8-----8--5--|------------8--5--|--
G|--5--7b9--------7--5--|------------------------|------------------|--
D|----------------------|------------------------|------------------|--
A|----------------------|------------------------|------------------|--
E|----------------------|------------------------|------------------|--



E|--------------------5--------|---------5--------|--5-----5-----5--8--5--|--
B|-----------------------------|------------------|-----5-----5-----------|--
G|--7b9p7--5-----7b8-----5h7v--|--5h7b8-----5h7v--|-----------------------|--
D|------------7----------------|------------------|-----------------------|--
A|-----------------------------|------------------|-----------------------|--
E|-----------------------------|------------------|-----------------------|--



E|--5--5--8b9r8--|--5--5--8b9--9--9--9--8--5--5-----5--8--5--|--
B|---------------|-------------------------------5-----------|--
G|---------------|-------------------------------------------|--
D|---------------|-------------------------------------------|--
A|---------------|-------------------------------------------|--
E|---------------|-------------------------------------------|--



E|--------------------------------|----------------|-----------------------|--
B|--------------------5--------5--|----------------|----------8------------|--
G|--7b9r7--5-----7b9-----7--------|--8\7p5-----5h7p|--5--7/9-----9\7p5-----|--
D|------------7-------------7-----|---------7------|--------------------7--|--
A|--------------------------------|----------------|-----------------------|--
E|--------------------------------|----------------|-----------------------|--
http://www.guitartabcreator.com
Guitar Tab Creator is intended to store guitar tab created through the tool. It currently does not support in-line text editing. Any text you place in here will be lost. If you need to comment on your tab, please use the "Tab Notes" section located below.