BluesEnding

(/) Slide Up  (\) Slide Down  (h) Hammer On  (p) Pull Off  (b) Bend (r) Release (v) Vibrato


E|---------|-9/11-9--------------|-------|---------------------------|---
B|---------|--------11-9---------|-------|---------------------------|---
G|-------9-|-------------11-10-9-|-9-8-7-|---------------------------|---
D|-------8-|---------------------|-8-7-6-|------9-11-9-------------9-|---
A|-7-8-9-9-|---------------------|-9-8-7-|-9/11--------9h11-9--------|---
E|---------|---------------------|-------|--------------------10-7---|---



E|-------------------------------|---------|-10-10-11-11-11-11-10-10-10-|-
B|-------------------------------|---------|-9--9--10-10-10-10-9--9--9--|-
G|----------------------------7v-|-------9-|-10-10-11-11-11-11-10-10-10-|-
D|-----------------------9-11----|-------8-|----------------------------|-
A|--------9-11-7v-7-9/11---------|-7-8-9-9-|----------------------------|-
E|-7-9/11------------------------|---------|----------------------------|-
http://www.guitartabcreator.com
Guitar Tab Creator is intended to store guitar tab created through the tool. It currently does not support in-line text editing. Any text you place in here will be lost. If you need to comment on your tab, please use the "Tab Notes" section located below.