two guitar

(/) Slide Up  (\) Slide Down  (h) Hammer On  (p) Pull Off  (b) Bend (r) Release (v) Vibrato

E|---------------------------------------------------------------------------------------
B|-----0-----7h8-----7h8p7-----7p0-----3p0--------------0h1-----0-----0h1--1p0-----------
G|--------0-------0---------9-------0-------------0----------------0------------2--------
D|---------------------------------------------------------------------------------------
A|------------------------------------------2--3-----3-------3---------------------------
E|--0------------------------------------------------------------------------------------



E|-----------3---------------------------------------0---------------------------
B|--0--------------3--0---------------------0-----------1--0---------------------
G|-----0-----------------0-------0-------------0--------------0-------0----------
D|----------------------------------------------------------------------------4--
A|--------------------------2/3-----3\2--0-----------------------2/3-----3/5-----
E|--3-----3-----3---------------------------0-----0------------------------------
http://www.guitartabcreator.com
Guitar Tab Creator is intended to store guitar tab created through the tool. It currently does not support in-line text editing. Any text you place in here will be lost. If you need to comment on your tab, please use the "Tab Notes" section located below.