Rounding The Cape 1

(/) Slide Up  (\) Slide Down  (h) Hammer On  (p) Pull Off  (b) Bend (r) Release (v) Vibrato
E|-----------|-----------------|-----------------|-----------|--
B|-----------|-----------------|-----------------|-----------|--
G|-----2--2--|-----------------|-----------------|-----------|--
D|--5--------|--5--3--2--3-----|-----------0-----|-----------|--
A|-----------|--------------0--|--1--2--3--------|-----0--0--|--
E|-----------|-----------------|--------------1--|--3--------|--



E|-----------|-----------------|-----------------|--------------|--
B|-----------|-----------------|-----------------|--------------|--
G|-----------|--------2--------|--------2--------|--------------|--
D|--2--3--3--|--2--3-----5--0--|--2--3-----5--0--|--0--3--3--2--|--
A|-----------|-----------------|-----------------|--------------|--
E|-----------|-----------------|-----------------|--------------|--



E|------5--5---|-------------------|-----------------|-----------|--
B|--8----------|--8----------------|-----------------|-----------|--
G|-------------|-----10--9--10-----|--3--5--5--7-----|-----------|--
D|-------------|----------------7--|--------------3--|--5--7--7--|--
A|-------------|-------------------|-----------------|-----------|--
E|-------------|-------------------|-----------------|-----------|--
http://www.guitartabcreator.com
Guitar Tab Creator is intended to store guitar tab created through the tool. It currently does not support in-line text editing. Any text you place in here will be lost. If you need to comment on your tab, please use the "Tab Notes" section located below.