Rounding The Cape

(/) Slide Up  (\) Slide Down  (h) Hammer On  (p) Pull Off  (b) Bend (r) Release (v) Vibrato
E|-----------|-----------------|-----------------|-----------|--
B|-----------|-----------------|-----------------|-----------|--
G|-----2--2--|-----------------|-----------------|-----------|--
D|--5--------|--5--3--2--3-----|-----------0-----|-----------|--
A|-----------|--------------0--|--1--2--3--------|-----0--0--|--
E|-----------|-----------------|--------------1--|--3--------|--



E|-----------|-----------------|-----------------|--------------|--
B|-----------|-----------------|-----------------|--------------|--
G|-----------|--------2--------|--------2--------|--------------|--
D|--2--3--3--|--2--3-----5--0--|--2--3-----5--0--|--0--3--2--2--|--
A|-----------|-----------------|-----------------|--------------|--
E|-----------|-----------------|-----------------|--------------|--



E|------5--5---|-------------------|-------------|--------------|--
B|--8----------|--8----------------|-------------|--------------|--
G|-------------|-----10--9--10-----|--3--5--5/7--|--------------|--
D|-------------|----------------7--|-------------|--3--5--7--7--|--
A|-------------|-------------------|-------------|--------------|--
E|-------------|-------------------|-------------|--------------|--



E|-----------|--------5--------|--------5--------|----------------|--
B|--5--6--6--|--5--6-----8-----|--5--6-----8-----|----------------|--
G|-----------|--------------7--|--------------7--|--7--10--10--9--|--
D|-----------|-----------------|-----------------|----------------|--
A|-----------|-----------------|-----------------|----------------|--
E|-----------|-----------------|-----------------|----------------|--



E|-----10---------|------13----------|------10--12--13--|--12--10--13--|--
B|--8------8--10--|--10------10--13--|--13--------------|--------------|--
G|----------------|------------------|------------------|--------------|--
D|----------------|------------------|------------------|--------------|--
A|----------------|------------------|------------------|--------------|--
E|----------------|------------------|------------------|--------------|--



E|--12--10--13--|--
B|--------------|--
G|--------------|--
D|--------------|--
A|--------------|--
E|--------------|--



E|--12--10--13--|--15--10--12--|-----------------|--10------8------6-----5-----|--
B|--------------|--------------|--11--10--8------|------11-----10-----8-----6--|--
G|--------------|--------------|-------------10--|-----------------------------|--
D|--------------|--------------|-----------------|-----------------------------|--
A|--------------|--------------|-----------------|-----------------------------|--
E|--------------|--------------|-----------------|-----------------------------|--



E|-----------|-----------------|-----------------|-----------|--
B|-----------|-----------------|-----------------|-----------|--
G|-----2--2--|-----------------|-----------------|-----------|--
D|--5--------|--5--3--2--3-----|-----------0-----|-----------|--
A|-----------|--------------0--|--1--2--3--------|-----0--0--|--
E|-----------|-----------------|--------------1--|--3--------|--



E|-----------|--------5--------|--------5--------|----------------|--
B|--5--6--6--|--5--6-----8-----|--5--6-----8-----|----------------|--
G|-----------|--------------7--|--------------7--|--7--10--10--9--|--
D|-----------|-----------------|-----------------|----------------|--
A|-----------|-----------------|-----------------|----------------|--
E|-----------|-----------------|-----------------|----------------|--



E|-----10---------|------13----------|------10--12--13--|--12--10--13--|--
B|--8------8--10--|--10------10--13--|--13--------------|--------------|--
G|----------------|------------------|------------------|--------------|--
D|----------------|------------------|------------------|--------------|--
A|----------------|------------------|------------------|--------------|--
E|----------------|------------------|------------------|--------------|--



E|--12--10--13--|--
B|--------------|--
G|--------------|--
D|--------------|--
A|--------------|--
E|--------------|--



E|--12--10--13--|--15--10--12--|-----------------|--10------8------6-----5-----|--
B|--------------|--------------|--11--10--8------|------11-----10-----8-----6--|--
G|--------------|--------------|-------------10--|-----------------------------|--
D|--------------|--------------|-----------------|-----------------------------|--
A|--------------|--------------|-----------------|-----------------------------|--
E|--------------|--------------|-----------------|-----------------------------|--



E|-----------|-----------------|-----------------|-----------|--
B|-----------|-----------------|-----------------|-----------|--
G|--2--4--4--|--2--------------|-----------------|-----------|--
D|-----------|-----5--4--5-----|-----------2-----|-----2--2--|--
A|-----------|--------------2--|--3--5--5--------|--0--------|--
E|-----------|-----------------|--------------3--|-----------|--



E|-----------|--------7---------|--------7---------|-----------------|--
B|--7--8--8--|--7--8-----10-----|--7--8-----10-----|-----------------|--
G|-----------|---------------9--|---------------9--|--9--12--12--11--|--
D|-----------|------------------|------------------|-----------------|--
A|-----------|------------------|------------------|-----------------|--
E|-----------|------------------|------------------|-----------------|--




E|--3-----------|--------
B|-----3--------|--------
G|--------4-----|--------
D|-----------5--|--2--2--
A|--------------|--------
E|--------------|--------
http://www.guitartabcreator.com
Guitar Tab Creator is intended to store guitar tab created through the tool. It currently does not support in-line text editing. Any text you place in here will be lost. If you need to comment on your tab, please use the "Tab Notes" section located below.