Time Won't Wait - Jamiroquai bass COVER

(/) Slide Up  (\) Slide Down  (h) Hammer On  (p) Pull Off  (b) Bend (r) Release (v) Vibrato

Stave 1:

E|----------------------------------------------------------------------------------------------
B|----------------------------------------------------------------------------------------------
G|----------------------------------------------------------------------------------------------
D|----------------------------------------------------------------------------------------------
A|--------3--5--5--3--5--------3--5--5--3--5h7p5--5h7p5--------3--5--5--3--5--------3--5--5--3--
E|--5--5-----------------5--5----------------------------5--5-----------------5--5--------------

Stave 2:

E|------------------------------------------------------------------------------------------------
B|------------------------------------------------------------------------------------------------
G|------------------------------------------------------------------------------------------------
D|--3h5p3-----------------------------------------------------------------------------------------
A|---------5h7p5--------3--5--5--3----\5--------3--5--5--3--5h7p5--5h7p5--------3--5--5--3----\5--
E|----------------5--5--------------------5--5----------------------------5--5--------------------

Stave 3:

E|----------------------------------
B|----------------------------------
G|----------------------------------
D|--------------------3h5p3---------
A|--------3--5--5--3---------5h7p5--
E|--5--5----------------------------

Stave 4:

E|------------------------------------------------------------------------------------------
B|------------------------------------------------------------------------------------------
G|-----------------------5--5--3--5--------3--3--1--3---------------------------------------
D|-----3--3--1--3-------------------------------------------------------4-----4h6--4--------
A|--------------------3--------------3--1--------------1--1--------1/4-----4----------4-----
E|--1--------------1-----------------------------------------1---------------------------6--

Stave 5:

E|--------------------------------------------------------------------------------------------------------
B|--------------------------------------------------------------------------------------------------------
G|--------------------------------------------------------------------------------------------------------
D|--6--8----------------------------------6--8---------------------------3--------6--8--------------------
A|--------------3h5--3--------3--5--3--5--------------3h5--3----3--3--5-----5-----------------------------
E|--------3--4----------5--5--------------------3--4---------------------------6--------3--4--------------

Stave 6:

E|----------------------------------------------------------------
B|----------------------------------------------------------------
G|----------------------------------------------------------------
D|----------------------------5--5-----------------5--7--7--7-----
A|--3h5--3--------3--5--3--5--------------------5--------------7--
E|----------5--5--------------------3--3--5--5--------------------

Stave 7:

E|------------------------------------------------------------------------------------
B|------------------------------------------------------------------------------------
G|-----------------------5--5--3--5--------3--3--1--3---------------------------------
D|-----3--3--1--3----------------------------------------------------4-----4h6--------
A|--------------------3--------------3--1--------------1--1-----1/4-----4-------4-----
E|--1--------------1-----------------------------------------1---------------------6--

Stave 8:

E|-----------------------------------------------------------------------------
B|-----------------------------------------------------------------------------
G|-----------------------------------------------------------------------------
D|--------5--3-----------8--------------------------------------5-----4-----4--
A|-----3--------3-----------8--6-----------6--5--4-----------5-----5-----5-----
E|--1--------------5--6-----------6--5--4-----------4--4--3--------------------

Stave 9:

E|-----------------------------------------------------------------------------------------------
B|-----------------------------------------------------------------------------------------------
G|-----------------------5--5--3--5--------3--3--1--3--------------------------------------------
D|-----3--3--1--3-----------------------------------------------6-----4--------------------------
A|--------------------3--------------3--1--------------1-----4-----4-----4-----------------------
E|--1--------------1--------------------------------------2-----------------6--1--1--1--4--5--6--

Stave 10:

E|-----------------------------------------------------
B|-----------------------------------------------------
G|-----------------------------------------------------
D|-----------------------------------------8-----6-----
A|--8--7--6-----------6--5--4-----------6-----6-----8--
E|-----------6--5--4-----------4--4--3-----------------

Stave 11:

E|--------------------------------------------------------------------------------------------------
B|--------------------------------------------------------------------------------------------------
G|--------------------------------------------------------------------------------------------------
D|--6--8----------------------------------6--8-------------------------3--------6--8----------------
A|--------------3h5--3--------3--5--3--5--------------3h5--3--3--3--5-----5-----------------3h5-----
E|--------3--4----------5--5--------------------3--4-------------------------6--------3--4----------

Stave 12:

E|----------------------------------------------------------------------------------------------------------
B|----------------------------------------------------------------------------------------------------------
G|----------------------------------------------------------------------------------------------------------
D|----------------------------------------------------------------------------------------------------------
A|--3h5--3--------------------------------------------------------------------------------------------------
E|----------5--1----3--4--5--5--5--5--3--5----5--4--3--3--3--1--3--3-------------------4--5-----------------

Stave 13:

E|-------------------------------------------------------------------------------------------------------------------------------
B|-------------------------------------------------------------------------------------------------------------------------------
G|-------------------------------------------------------------------------------------------------------------------------------
D|----------------------------------------------------------------------------3--------------------------------------------------
A|-----------------------------------------------------------------------2/3-----3-----------------------------------------------
E|--------------------------------------------------5--5--5--3--5-----5----------------------------------------------------------

Stave 14:

E|--------------------------------------------------------------------------------------
B|--------------------------------------------------------------------------------------
G|--------------------------------------------------------------------------------------
D|--------------------------------------------------------------------------------------
A|--3h5--3------------------------------------------------------------------------------
E|----------5--1--3--4--5--5--5--5--3--5----5--4--3--3--3--3--1--3----3--4--5--5--5--5--

Stave 15:

E|-----------------------------------------------------------------------------------------
B|-----------------------------------------------------------------------------------------
G|-----------------------------------------------------------------------------------------
D|--5/7--5--3------------------------------------------------------------------------------
A|-------------5--3--5--3------------------------------------------------------------------
E|-------------------------5--1--3--4--5--5--5--5--3--5----5--4--3--3--3--1--3----3--4--5--

Stave 16:

E|------------------------------------------------------------------------------------------
B|------------------------------------------------------------------------------------------
G|------------------------------------------------------------------------------------------
D|-------------------------3----------------------------------------------------------------
A|--------------------2/3-----3--5--3-------------------------------------------------------
E|--5--5--5--3--5--5-------------------5--1--3--4--5--5--5--5--3--5----5--3--3--3--3--1--3--

Stave 17:

E|--------------------------
B|--------------------------
G|--------------------------
D|--------------------------
A|--------------------5/12--
E|--3--4--5--5--5--5--------

http://www.guitartabcreator.com
Guitar Tab Creator is intended to store guitar tab created through the tool. It currently does not support in-line text editing. Any text you place in here will be lost. If you need to comment on your tab, please use the "Tab Notes" section located below.