The Park Improvisation

(/) Slide Up  (\) Slide Down  (h) Hammer On  (p) Pull Off  (b) Bend (r) Release (v) Vibrato

E|-----------------------------------------------------------------------------------------------
B|--5--5--5--5--5--3--1--0-----------5--5--5--5--5--3--1--0-----------5-----------5--5--5--5-----
G|-----------------------------------------------------------------------0-----0-----------------
D|--------------------------------------------------------------------------0--------------------
A|--------------------------2--3--5--------------------------5--3--2-----------------------------
E|--5-----5--------3-----------------5-----5--------3-----------------5-----------5-----5--------



E|--------------
B|--3-----------
G|-----0-----0--
D|--------0-----
A|--------------
E|--3-----------
http://www.guitartabcreator.com
Guitar Tab Creator is intended to store guitar tab created through the tool. It currently does not support in-line text editing. Any text you place in here will be lost. If you need to comment on your tab, please use the "Tab Notes" section located below.