Dust In the Wind Solo

(/) Slide Up  (\) Slide Down  (h) Hammer On  (p) Pull Off  (b) Bend (r) Release (v) Vibrato


E|-----------------------------7--8--10-----------------------------------------------
B|----------------------8--10-------------------------------------10--12--13--12--10--
G|--9--7-------------7------------------------------------10--12----------------------
D|--------10--9--10----------------------10--9--7--9--10------------------------------
A|------------------------------------------------------------------------------------
E|------------------------------------------------------------------------------------



E|------------------------------------------------------------7--8--10-------------------------------
B|--12--13--12--10------10-----------------------------8--10-------------------------------------10--
G|------------------12------12--9--7--9--7-----------------------------------------------10--12------
D|------------------------------------------10--9--10-------------------10--9--7--9--10--------------
A|---------------------------------------------------------------------------------------------------
E|---------------------------------------------------------------------------------------------------



E|------------------------------------------10--12--13--15--17--15--13--15--13------13-----------------
B|--12--13--12--10--12--13--12--10--12--13--------------------------------------17------17--15--17-----
G|-----------------------------------------------------------------------------------------------------
D|-----------------------------------------------------------------------------------------------------
A|-----------------------------------------------------------------------------------------------------
E|-----------------------------------------------------------------------------------------------------



E|----------------------------------------------------------------------------------13--17--15--
B|--13--15--13--12----------12--13------12--13--15--12--12--13--15--17--13--15--17--------------
G|------------------14--14----------14----------------------------------------------------------
D|----------------------------------------------------------------------------------------------
A|----------------------------------------------------------------------------------------------
E|----------------------------------------------------------------------------------------------



E|--17--15--13--15--13------13----------------------------------
B|----------------------17------17--15--17--13--15--13--12------
G|----------------------------------------------------------14--
D|--------------------------------------------------------------
A|--------------------------------------------------------------
E|--------------------------------------------------------------
http://www.guitartabcreator.com
Guitar Tab Creator is intended to store guitar tab created through the tool. It currently does not support in-line text editing. Any text you place in here will be lost. If you need to comment on your tab, please use the "Tab Notes" section located below.