Proverbs (pc)

(/) Slide Up  (\) Slide Down  (h) Hammer On  (p) Pull Off  (b) Bend (r) Release (v) Vibrato


E|--------------------------------0-----------0-----
B|--------1-----------1-----------------------------
G|-----2-----2-----2-----2-----2-----2-----2-----2--
D|--------------------------------------------------
A|--0-----------0-----------0-----------0-----------
E|--------------------------------------------------



E|--------------------------------------------------
B|--------1-----------1-----------0-----------0-----
G|-----0-----0-----0-----0-----1-----1-----1-----1--
D|--------------------------------------------------
A|--3-----------3-----------2-----------2-----------
E|--------------------------------------------------
http://www.guitartabcreator.com
Guitar Tab Creator is intended to store guitar tab created through the tool. It currently does not support in-line text editing. Any text you place in here will be lost. If you need to comment on your tab, please use the "Tab Notes" section located below.