Speedy Song

(/) Slide Up  (\) Slide Down  (h) Hammer On  (p) Pull Off  (b) Bend (r) Release (v) Vibrato


E|---------------------------------------------------------------------------
B|---------------------------------------------------------------------------
G|---------------------------------------------------------------------------
D|-9-9-9-7-9-7-9-7-9-9-9-7-9-7-9-7-9-9-9-7-9-7-9-7-9/12-12-12-12-12-12-12-12-
A|---------------------------------------------------------------------------
E|---------------------------------------------------------------------------



E|---------------------------------------------------------------------------
B|---------------------------------------------------------------------------
G|---------------------------------------------------------------------------
D|---------------------------------------------------------------------------
A|---------------------------------------------------------------------------
E|-7-7-7-5-7-5-7-5-7-7-7-5-7-5-7-5-7-7-7-5-7-5-7-5-7/10-10-10-10-10-10-10-10-



E|-----------------------------------------------------------------
B|-----------------------------------------------------------------
G|-----------------------------------------------------------------
D|-----5-5-----4-4-----5-5-----4-4-----5-5-----4-4-----5-5-----4-4-
A|-7-7-----2-2-----7-7-----2-2-----7-7-----2-2-----7-7-----2-2-----
E|-----------------------------------------------------------------



E|-----------------------------------------------------------------
B|-----------------------------------------------------------------
G|-----------------------------------------------------------------
D|-6-6-6-4-6-4-6-4-7-7-7-5-7-5-7-5-8-8-8-6-8-6-8-6-9-9-9-7-9-7-9-7-
A|-----------------------------------------------------------------
E|-----------------------------------------------------------------
http://www.guitartabcreator.com
Guitar Tab Creator is intended to store guitar tab created through the tool. It currently does not support in-line text editing. Any text you place in here will be lost. If you need to comment on your tab, please use the "Tab Notes" section located below.