Plodding (song)

(/) Slide Up  (\) Slide Down  (h) Hammer On  (p) Pull Off  (b) Bend (r) Release (v) Vibrato


E|---------------------------------------------
B|---------------------------------------------
G|---------------------------------------------
D|---9----12----10---9----12----10---9-7-5-4-2-
A|-----10----12--------10----12----------------
E|-0---------------0---------------0-----------



E|---------------------------------------------------------------------------------
B|---------------------------------------------------------------------------------
G|-----2-----------------------------2---------------------------------------------
D|---4-----4---5---5---5-4-2-------4-----4---5---5---5-4-2---------9----12----10---
A|-2-------------------------2---2-------------------------5-4-2-----10----12------
E|---------------------------------------------------------------0-----------------
http://www.guitartabcreator.com
Guitar Tab Creator is intended to store guitar tab created through the tool. It currently does not support in-line text editing. Any text you place in here will be lost. If you need to comment on your tab, please use the "Tab Notes" section located below.