Graveyard - 20/20 (Tunnel Vision)

(/) Slide Up  (\) Slide Down  (h) Hammer On  (p) Pull Off  (b) Bend (r) Release (v) Vibrato


E|----------------------------
B|----------------------------
G|----------------------------
D|----------------------------
A|-----3--5---------5--3------
E|--5------------5------------



E|---------------------------------------------------------------------------------------------
B|---------------------------------------------------------------------------------------------
G|---------------------------------------------------------------------------------------------
D|---------------------------------------------------------------------------------------------
A|-----3--5---------3--5---------3--5---------3--5---------5--3---------3--5---------3--5------
E|--5------------5------------5------------5------------5------------5------------5------------



E|-------------------------------------------------------------------
B|-------------------------------------------------------------------
G|-------------------------------------------------------------------
D|-------------------------------------------------------------------
A|-----3--5---------3--5---------3--5---------3--5---------5--3------
E|--5------------5------------5------------5------------5------------



E|------------------------------------------------------
B|------------------------------------------------------
G|------------------------------------------------------
D|--3--7--5------3------------3--7--5------3------------
A|------------------3--5----------------------3--5------
E|------------------------------------------------------



E|------------------------------------------------------
B|------------------------------------------------------
G|------------------------------------------------------
D|--3--5---------3--5---------3--5---------3--5---------
A|--------5------------5------------5------------5------
E|------------------------------------------------------
http://www.guitartabcreator.com
Guitar Tab Creator is intended to store guitar tab created through the tool. It currently does not support in-line text editing. Any text you place in here will be lost. If you need to comment on your tab, please use the "Tab Notes" section located below.