Add to Ascending Doom Scale

(/) Slide Up  (\) Slide Down  (h) Hammer On  (p) Pull Off  (b) Bend (r) Release (v) Vibrato

E|-------------------------------------------------------------
B|-------------------------------------------------------------
G|---9---7---6-------9---7---6-------9---7---6---7---6---4---2-
D|-------------------------------------------------------------
A|-0---0---0-------0---0---0-------0---0---0---0---0---0---0---
E|-------------------------------------------------------------



E|-------------------------------------------------------------------------------------------------------------
B|-------------------------------------------------------------------------------------------------------------
G|-----11-----12-----14-------------11-----12-----14-------------11-----12-----14-----16-----17-----16-----19--
D|--0------0------0--------------0------0------0--------------0------0------0------0------0------0------0------
A|-------------------------------------------------------------------------------------------------------------
E|-------------------------------------------------------------------------------------------------------------
http://www.guitartabcreator.com
Guitar Tab Creator is intended to store guitar tab created through the tool. It currently does not support in-line text editing. Any text you place in here will be lost. If you need to comment on your tab, please use the "Tab Notes" section located below.