Your Not Alone by Saosin




INTRO
GUITAR 1
E|-----------------17-----------------|
B|---18--18-17---18--18-17-18-18-18---|
G|-----17------17---------------------|
D|------------------------------------|x8
A|------------------------------------|
E|------------------------------------|


GUITAR 2
E|----------------------------------------|
B|----------------------------------------|
G|--10-10-10-9-9-9------------------------|
D|-----------------10-10-10-10-10-10-10---|
A|----------------------------------------|
E|----------------------------------------|

E|-----------------------------------------------|
B|-----------------------------------------------|
G|-10-10-10-9-9-9-12-12-12-14-12-12-14-12-14-12--|
D|-----------------------------------------------|
A|-----------------------------------------------|
E|-----------------------------------------------|

E|--------------------------------------|
B|--------------------------------------|
G|--10-10-10-9-9-9----------------------|
D|-----------------10-10-10-10-10-10----|
A|--------------------------------------|
E|--------------------------------------|

E|-----------------------------------------------|
B|-----------------------------------------------|
G|-10-10-10-9-9-9-12-12-12-14-12-12-14-12-14-12--|
D|-----------------------------------------------|
A|-----------------------------------------------|
E|-----------------------------------------------|


GUITAR 3
E|--------------------------------------|
B|--------------------------------------|
G|--10-10-10-9-9-9----------------------|
D|----------------10-10-10-10-10-10-10--|
A|--------------------------------------|
E|--------------------------------------|
x3
E|-----------------------------------------------|
B|-----------------------------------------------|
G|-10-10-10-9-9-9-12-12-12-14-14-14-14-14-14-14--|
D|-----------------------------------------------|
A|-----------------------------------------------|
E|-----------------------------------------------|


PRECHORUS
GUITAR 3
E|-------------------|
B|-------------------|
G|-------------------|
D|--8-8-8-8-8-8-8-8--|x2
A|--8-8-8-8-8-8-8-8--|
E|--6-6-6-6-6-6-6-6--|
. . . . . . . .
e|-------------------|
B|-------------------|
G|-------------------|
D|--1010101010101010-|x2
A|--1010101010101010-|
E|--8-8-8-8-8-8-8-8--|
. . . . . . . .

GUITAR 2

E|-----------|
B|-----------|
G|-10---12---|
D|-x-X8-x-X8-|
A|-8----10---|
E|-----------|

GUITAR 1
E|-----------------17-----------------|
B|---18--18-17---18--18-17-18-18-18---|
G|-----17------17---------------------|
D|------------------------------------|x4
A|------------------------------------|
E|------------------------------------|

CHORUS
GUITAR 1
E|----------------------------------------- -------|
B|----------------------------------------- -------|
G|-10---3----10---12---14---15---14---12--- -10----|
D|-x-X8-x X8-x-X8-x-X8-x-X8-x-X8-x-X8-x-X8- x1 -x-X16-|
A|-8----1----8----10---12---13---12---10--- -8-----|
E|----------------------------------------- -------|

GUITAR 2/3
E|-----------------------------------------------------------------|
B|-----------------------------------------------------------------|
G|-7-7-7-7-7-7-7-7---------------------------------5-5-5-5-5-5-5-5-|
D|-7-7-7-7-7-7-7-7-8-8-8-8-8-8-8-8-3-3-3-3-3-3-3-3-5-5-5-5-5-5-5-5-|x2
A|-5-5-5-5-5-5-5-5-8-8-8-8-8-8-8-8-3-3-3-3-3-3-3-3-3-3-3-3-3-3-3-3-|
E|-----------------6-6-6-6-6-6-6-6-1-1-1-1-1-1-1-1-----------------|

E|--------------------|
B|--------------------|
G|--------------------|
D|--8-8-8-8-8-8-8-8---|x2
A|--8-8-8-8-8-8-8-8---|
E|--6-6-6-6-6-6-6-6---|

VERSE
E|-----------------17-----------------|
B|---18--18-17---18--18-17-18-18-18---|
G|-----17------17---------------------|
D|------------------------------------|x8
A|------------------------------------|
E|------------------------------------|


GUITAR 2
E|--------------------------------------|
B|--------------------------------------|
G|--10-10-10-9-9-9----------------------|
D|----------------10-10-10-10-10-10-10--|
A|--------------------------------------|
E|--------------------------------------|
x3
E|-----------------------------------------------|
B|-----------------------------------------------|
G|-10-10-10-9-9-9-12-12-12-14-14-14-14-14-14-14--|
D|-----------------------------------------------|
A|-----------------------------------------------|
E|-----------------------------------------------|

PRECHORUS

GUITAR 3
E|-------------------|
B|-------------------|
G|-------------------|
D|--8-8-8-8-8-8-8-8--|x2
A|--8-8-8-8-8-8-8-8--|
E|--6-6-6-6-6-6-6-6--|
. . . . . . . .
E|-------------------|
B|-------------------|
G|-------------------|
D|--1010101010101010-|x2
A|--1010101010101010-|
E|--8-8-8-8-8-8-8-8--|
. . . . . . . .

GUITAR 2

E|-----------|
B|-----------|
G|-10---12---|
D|-x-X8-x-X8-|
A|-8----10---|
E|-----------|

GUITAR 1

E|-----------------17-----------------|
B|---18--18-17---18--18-17-18-18-18---|
G|-----17------17---------------------|
D|------------------------------------|x4
A|------------------------------------|
E|------------------------------------|


CHORUS

E|-----------------------------------------
B|-----------------------------------------
G|-10---3----10---12---14---15---14---12---
D|-x-X8-x X8-x-X8-x-X8-x-X8-x-X8-x-X8-x-X8- x2
A|-8----1----8----10---12---13---12---10---
E|-----------------------------------------

E|-----------------------------------------------------------------|
B|-----------------------------------------------------------------|
G|-7-7-7-7-7-7-7-7---------------------------------5-5-5-5-5-5-5-5-|
D|-7-7-7-7-7-7-7-7-8-8-8-8-8-8-8-8-3-3-3-3-3-3-3-3-5-5-5-5-5-5-5-5-|x4
A|-5-5-5-5-5-5-5-5-8-8-8-8-8-8-8-8-3-3-3-3-3-3-3-3-3-3-3-3-3-3-3-3-|
E|-----------------6-6-6-6-6-6-6-6-1-1-1-1-1-1-1-1-----------------|

SOLO

E|--------------------------------------------------------------------|
B|--------------------------------------------------------------------|
G|-10~~~----12--10~~~-12--/14--10--12-10~~~--9h10---------------------|
D|-------10---------------------------------------10--/12--10~-12-10v-|
A|--------------------------------------------------------------------|
E|--------------------------------------------------------------------|

e|--------------------------------------------------------------------|
B|--------------------------------------------------------------------|
G|--10~~~------12---10~~~-9---7---14~~~--12---14---15~~~---/19--------|
D|--------10----------------------------------------------------------|
A|--------------------------------------------------------------------|
E|--------------------------------------------------------------------|

SOLO
GUITAR 1

E|-----------------17-----------------|
B|---18--18-17---18--18-17-18-18-18---|
G|-----17------17---------------------|
D|------------------------------------|x8
A|------------------------------------|
E|------------------------------------|

E|--------------------------------------------------------------------|
B|--10~~~------13---10~~~-8---6---13~~~--10---13---13~~~--------------|
G|--------10----------------------------------------------------------|
D|--------------------------------------------------------------------|
A|--------------------------------------------------------------------|
E|--------------------------------------------------------------------|

GUITAR 3

E|--x16--|--x16--|--x16--|--x16--|--x16--|--x16--|--x16--|--x16--|
B|-------|-------|-------|-------|-------|-------|-------|-------|
G|---10--|-------|---7---|-------|---10--|-------|-------|---8---|
D|---10--|---8---|---7---|---8---|---10--|---8---|---10--|---8---|
A|---8---|---8---|---5---|---8---|---8---|---8---|---10--|---6---|
E|-------|---6---|-------|---6---|-------|---6---|---8---|-------|


(PIANO/DRUM PART)



CHORUS

E|-----------------------------------------|
B|-----------------------------------------|
G|-10---3----10---12---14---15---14---12---|
D|-x-X8-x X8-x-X8-x-X8-x-X8-x-X8-x-X8-x-X8-| x2
A|-8----1----8----10---12---13---12---10---|
E|-----------------------------------------|


E|-----------------------------------------------------------------|
B|-----------------------------------------------------------------|
G|-7-7-7-7-7-7-7-7---------------------------------5-5-5-5-5-5-5-5-|
D|-7-7-7-7-7-7-7-7-8-8-8-8-8-8-8-8-3-3-3-3-3-3-3-3-5-5-5-5-5-5-5-5-|x4
A|-5-5-5-5-5-5-5-5-8-8-8-8-8-8-8-8-3-3-3-3-3-3-3-3-3-3-3-3-3-3-3-3-|
E|-----------------6-6-6-6-6-6-6-6-1-1-1-1-1-1-1-1-----------------|

OUTRO

E|-----------------17-----------------|
B|---18--18-17---18--18-17-18-18-18---|
G|-----17------17---------------------|
D|------------------------------------|x12
A|------------------------------------|
E|------------------------------------|


E|--------------------------------------|
B|--------------------------------------|
G|--10-10-10-9-9-9----------------------|
D|-----------------10-10-10-10-10-10----|
A|--------------------------------------|
E|--------------------------------------|

e|-----------------------------------------------|
B|-----------------------------------------------|
G|-10-10-10-9-9-9-12-12-12-14-12-12-14-12-14-12--|
D|-----------------------------------------------|
A|-----------------------------------------------|
E|-----------------------------------------------|

E|--------------------------------------|
B|--------------------------------------|
G|--10-10-10-9-9-9----------------------|
D|-----------------10-10-10-10-10-10----|
A|--------------------------------------|
E|--------------------------------------|

e|-----------------------------------------------|
B|-----------------------------------------------|
G|-10-10-10-9-9-9-12-12-12-14-12-12-14-12-14-12--|
D|-----------------------------------------------|
A|-----------------------------------------------|
E|-----------------------------------------------|
Guitar Tab Creator is intended to store guitar tab created through the tool. It currently does not support in-line text editing. Any text you place in here will be lost. If you need to comment on your tab, please use the "Tab Notes" section located below.