When The Dust Settles Down by Redlight King

INTRO
ACOUSTIC
E|--------------------------------------------------------|
B|--------------------------------------------------------|
G|--------------------------------------------------------|
D|--9-9-9-9-9-9-9-9-6-6-6-6-6-6-6-2-2-2-2-2-2-2-2-2-2-2-2-| x2 (second time without the single note)
A|--9-9-9-9-9-9-9---6-6-6-6-6-6-6-2-2-2-2-2-2-2-2-2-2-2-2-|
E|--7-7-7-7-7-7-7---4-4-4-4-4-4-4-0-0-0-0-0-0-0-0-0-0-0-0-|


Electric
E|----------------------------------|
B|----------------------------------|
G|----------------------------------|
D|-9h11r9\13-------9-13-11-9b\11----|
A|-------------------------------11-|
E|----------------------------------|

VERSE
ACOUSTIC
E|-------------------------------------------------------|
B|-------------------------------------------------------|
G|-------------------------------------------------------|
D|--9-9-9-9-9-9-9--6-6-6-6-6-6-6-2-2-2-2-2-2-2-2-2-2-2-2-| x2
A|--9-9-9-9-9-9-9--6-6-6-6-6-6-6-2-2-2-2-2-2-2-2-2-2-2-2-|
E|--7-7-7-7-7-7-7--4-4-4-4-4-4-4-0-0-0-0-0-0-0-0-0-0-0-0-|

ELECTRIC 2 (as bass)
E|-------|
B|-------|
G|-------|
D|-------|
A|-2-----|
E|---4-0-|

E|-----------------------------------------|
B|-----------------------------------------|
G|-----------------------------------------|
D|----9-----------------13-13-13-11-9-11---|
A|-11--9--9h11--9-11-9------------------11-|
E|-----------------------------------------|

CHORUS

ACOUSTIC
E|-----------------------------------------------------------------|
B|-----------------------------------------------------------------|
G|-----------------------------------------------------------------|
D|-9-9-9-9-9-9-9-9-6-6-6-6-6-6-6-6-1-1-1-1-1-1-1-1-4-4-4-4-4-4-4-4-|
A|-9-9-9-9-9-9-9-9-6-6-6-6-6-6-6-6-1-1-1-1-1-1-1-1-4-4-4-4-4-4-4-4-|
E|-7-7-7-7-7-7-7-7-4-4-4-4-4-4-4-4-x-x-x-x-x-x-x-x-2-2-2-2-2-2-2-2-|


ELECTRIC
E|---------- -----------------------------------------------------|
B|---------- -----------------------------------------------------|
G|---------- -----------------------------------------------------|
D|-9-9-8-11- x2 or -9-9-9-9-9-9-9-9-9-9-9-9-9-9-9-9-8-8-8-8-11-11-11-11-|
A|---------- -x-x-x-x-x-x-x-x-x-x-x-x-x-x-x-x-x-x-x-x-x--x--x--x--|
E|---------- -7-7-7-7-7-7-7-7-7-7-7-7-7-7-7-7-6-6-6-6-9--9--9--9--|

ELECTRIC 2 (as bass)
E|---------|
B|---------|
G|---------|
D|---------|
A|-2-2-1-4-|
E|---------|

VERSE
ACOUSTIC
E|-------------------------------------------------------|
B|-------------------------------------------------------|
G|-------------------------------------------------------|
D|--9-9-9-9-9-9-9--6-6-6-6-6-6-6-2-2-2-2-2-2-2-2-2-2-2-2-| x2
A|--9-9-9-9-9-9-9--6-6-6-6-6-6-6-2-2-2-2-2-2-2-2-2-2-2-2-|
E|--7-7-7-7-7-7-7--4-4-4-4-4-4-4-0-0-0-0-0-0-0-0-0-0-0-0-|

ELECTRIC
E|-------------------------------------------|
B|-------------------------------------------|
G|---------------11/13-11--------------16-16-|
D|-9r8-------------------------14-13---------|
A|-----9/11----------------------------------|
E|-------------------------------------------|


CHORUS

ACOUSTIC
E|-----------------------------------------------------------------|
B|-----------------------------------------------------------------|
G|-----------------------------------------------------------------|
D|-9-9-9-9-9-9-9-9-6-6-6-6-6-6-6-6-1-1-1-1-1-1-1-1-4-4-4-4-4-4-4-4-|
A|-9-9-9-9-9-9-9-9-6-6-6-6-6-6-6-6-1-1-1-1-1-1-1-1-4-4-4-4-4-4-4-4-|
E|-7-7-7-7-7-7-7-7-4-4-4-4-4-4-4-4-x-x-x-x-x-x-x-x-2-2-2-2-2-2-2-2-|


ELECTRIC
E|---------- -----------------------------------------------------|
B|---------- -----------------------------------------------------|
G|---------- -----------------------------------------------------|
D|-9-9-8-11- x2 or -9-9-9-9-9-9-9-9-9-9-9-9-9-9-9-9-8-8-8-8-11-11-11-11-|
A|---------- -x-x-x-x-x-x-x-x-x-x-x-x-x-x-x-x-x-x-x-x-x--x--x--x--|
E|---------- -7-7-7-7-7-7-7-7-7-7-7-7-7-7-7-7-6-6-6-6-9--9--9--9--|

ELECTRIC 2 (as bass)
E|---------|
B|---------|
G|---------| (play for the rest of the song)
D|---------|
A|-2-2-1-4-|
E|---------|

OUTRO TO PLAY WITH CHORUS

E|-------------------------|
B|-------------------------|
G|-------------------------|
D|-9-8-6---------9-8-6-----|
A|-------9-6-----------9---|
E|-----------------------9-|

Guitar Tab Creator is intended to store guitar tab created through the tool. It currently does not support in-line text editing. Any text you place in here will be lost. If you need to comment on your tab, please use the "Tab Notes" section located below.