Song of Hope by Robbie Seay Band

ELECTRIC 1
E|--------------------------------------------------11
B|------------------------------------------12--14----
G|--15--16--15--16--15--16--15--13--11--13------------
D|----------------------------------------------------
A|----------------------------------------------------
E|----------------------------------------------------


------------------------------ -----|
--14--12------18--18--17--15-- --12-|
------------------------------ -----|
----------14------------------ X2 -----|
------------------------------ -----|
------------------------------ -----|

VERSE
ELECTRIC 2
E|-----------------|
B|-----------------|
G|-13-13----11-11--|
D|-x--x-----x--x---| (throughout verse)
A|-11-11----9--9---|
E|-----------------|

PRECHORUS

ELECTRIC 2
E|---------------|
B|---------------|
G|-13-13--16-----|
D|-x--x---x--X16-|
A|-11-11--14-----|
E|---------------|

CHORUS

ELECTRIC 2
E|-------------------|
B|-------------------|
G|-16-----13----9----|
D|-x--X16-x--X8-x-X8-|
A|-14-----11----7----|
E|-------------------|


ELECTRIC 1
E|--------------------------------------------------11
B|------------------------------------------12--14----
G|--15--16--15--16--15--16--15--13--11--13------------
D|----------------------------------------------------
A|----------------------------------------------------
E|----------------------------------------------------

------------------------------ -----|
--14--12------18--18--17--15-- --12-|
------------------------------ -----|
----------14------------------ -----|
------------------------------ -----|
------------------------------ -----|

POST

ELECTRIC 1
E|--------------------------------------------------11
B|------------------------------------------12--14----
G|--15--16--15--16--15--16--15--13--11--13------------
D|----------------------------------------------------
A|----------------------------------------------------
E|----------------------------------------------------


------------------------------ -----|
--14--12------18--18--17--15-- --12-|
------------------------------ -----|
----------14------------------ -----|
------------------------------ -----|
------------------------------ -----|

VERSE
ELECTRIC 2
E|-----------------|
B|-----------------|
G|-13-13----11-11--|
D|-x--x-----x--x---| (throughout verse)
A|-11-11----9--9---|
E|-----------------|

ELECTRIC 1
E|----------------------|
B|----------------------|
G|-------16-------15-13-|
D|-13-15----12-14-------|
A|----------------------|
E|----------------------|

PRECHORUS

ELECTRIC 2
E|---------------|
B|---------------|
G|-13-13--16-----|
D|-x--x---x--X16-|
A|-11-11--14-----|
E|---------------|

CHORUS

ELECTRIC 2
E|-------------------|
B|-------------------|
G|-16-----13----9----|
D|-x--X16-x--X8-x-X8-|
A|-14-----11----7----|
E|-------------------|

ELECTRIC 1
E|--------------------------------------------------11
B|------------------------------------------12--14----
G|--15--16--15--16--15--16--15--13--11--13------------
D|----------------------------------------------------
A|----------------------------------------------------
E|----------------------------------------------------


------------------------------ -----|
--14--12------18--18--17--15-- --12-|
------------------------------ -----|
----------14------------------ -----|
------------------------------ -----|
------------------------------ -----|

BRIDGE
ELECTRIC 1
E|--------------------------|
B|--------------19----------|
G|20-13--18-15----16--15--16|
D|----------------------16--|
A|--------------------------|
E|--------------------------|

CHORUS

ELECTRIC 2
E|-------------------|
B|-------------------|
G|-16-----13----9----|
D|-x--X16-x--X8-x-X8-|
A|-14-----11----7----|
E|-------------------|

ELECTRIC 1
E|--------------------------------------------------11
B|------------------------------------------12--14----
G|--15--16--15--16--15--16--15--13--11--13------------
D|----------------------------------------------------
A|----------------------------------------------------
E|----------------------------------------------------


------------------------------ -----|
--14--12------18--18--17--15-- --12-|
------------------------------ -----|
----------14------------------ -----|
------------------------------ -----|
------------------------------ -----|


Guitar Tab Creator is intended to store guitar tab created through the tool. It currently does not support in-line text editing. Any text you place in here will be lost. If you need to comment on your tab, please use the "Tab Notes" section located below.