Radioactive Chorus

E|---------13--11---------11--9-----------------13--11---
B|-11--14----------9--13---------9--11--11--14-----------
G|-------------------------------------------------------
D|-------------------------------------------------------
A|-------------------------------------------------------
D|-------------------------------------------------------

E|-------11--------9----11--------11----
B|-9--13----8--11----11----11--11----11-
G|--------------------------------------
D|--------------------------------------
A|--------------------------------------
D|--------------------------------------


E|-11----11---13--11----13----13-------11----|
B|----11-------------11----11----11--9----11-|
G|-------------------------------------------|
D|-------------------------------------------|
A|-------------------------------------------|
D|-------------------------------------------|
Guitar Tab Creator is intended to store guitar tab created through the tool. It currently does not support in-line text editing. Any text you place in here will be lost. If you need to comment on your tab, please use the "Tab Notes" section located below.