Past The Gates by Redlight King


INTRO


ELECTRIC 2
E|----------|
B|----------|
G|--5-8-----|
D|--5-8-6-3-| x1
A|--3-6-6-3-|
E|------4-1-|


ELECTRIC 1
E|------|
B|--11b-|
G|------|
D|------|
A|------|
E|------|


VERSE

ELECTRIC 2
E|----------|
B|----------|
G|--5-8-----|
D|--5-8-6-3-| (strum once throughout verse)
A|--3-6-6-3-|
E|------4-1-|

ELECTRIC 1
E|-------------------------|
B|-16-15-11----------------|
G|----------13-12----------|
D|------------------15-13--|
A|-------------------------|
E|-------------------------|

PRE-CHORUS

ELECTRIC 2
E|------|
B|------|
G|------|
D|-6--8-|
A|-6--8-|
E|-4--6-|

CHORUS

ELECTRIC 2
E|----------|
B|----------|
G|--5-8-----|
D|--5-8-6-3-|
A|--3-6-6-3-|
E|------4-1-|

ELECTRIC 1
(optional)
E|----------------------- ------------------------------------|
B|----------------------- ------------------------------------|
G|-8----5-8-5--8----5-8-- -5-8----5-8-5-10-12----15---8----10-|
D|-x-X3-x-x-x--x-X3-x-x-- -x-x-X3-x-x-x-x--x--X6-x-X6-x-X6-x--|
A|-6----3-6-3--6----3-6-- -3-6----3-6-3-8--10----13---6----8--|
E|----------------------- ------------------------------------|

POST

ELECTRIC 1
E|---------|
B|---------|
G|-8-7-8---|
D|-------5-| X2
A|---------|
E|---------|


VERSE

ELECTRIC 2
E|----------|
B|----------|
G|--5-8-----|
D|--5-8-6-3-| (full strums)
A|--3-6-6-3-|
E|------4-1-|

PRE-CHORUS

ELECTRIC 2
E|------|
B|------|
G|------|
D|-6--8-|
A|-6--8-|
E|-4--6-|


CHORUS

ELECTRIC 2
E|----------|
B|----------|
G|--5-8-----|
D|--5-8-6-3-|
A|--3-6-6-3-|
E|------4-1-|

ELECTRIC 1
(optional)
E|----------------------- ------------------------------------|
B|----------------------- ------------------------------------|
G|-8----5-8-5--8----5-8-- -5-8----5-8-5-10-12----15---8----10-|
D|-x-X3-x-x-x--x-X3-x-x-- -x-x-X3-x-x-x-x--x--X6-x-X6-x-X6-x--|
A|-6----3-6-3--6----3-6-- -3-6----3-6-3-8--10----13---6----8--|
E|----------------------- ------------------------------------|


SOLO (sort of)
ELECTRIC 1
E|------------------------------- --------------------------|
B|-13b---11///----13-11-13-11///- -8-88-7--8-88-7-8-88-7/10-|
G|------------------------------- --------------------------|
D|------------------------------- --------------------------|
A|------------------------------- --------------------------|
E|------------------------------- --------------------------|


E|--------------------------------------------------------|
B|--------------------------------------------------------|
G|-8-7-8---8-7-8--8-7-8-------8-7-8--8-7-8b/10-8-7-8------|
D|-------5------5------585858------5----------------5-3-1-|
A|--------------------------------------------------------|
E|--------------------------------------------------------|

OUTRO

ELECTRIC 2
E|----------|
B|----------|
G|--5-8-----|
D|--5-8-6-3-| (single strums)
A|--3-6-6-3-|
E|------4-1-|

ELECTRIC 1
E|-----------------------|
B|-13-11-13-X5--15-14-13-|
G|-----------------------|
D|-----------------------|
A|-----------------------|
E|-----------------------|









Guitar Tab Creator is intended to store guitar tab created through the tool. It currently does not support in-line text editing. Any text you place in here will be lost. If you need to comment on your tab, please use the "Tab Notes" section located below.