Comeback by Redlight King




Comeback by Redlight King

Tuning:Drop D



Guitar 1
E|--6p5h6-3-6p5h6-3-6p5h6-3-6p5h6-8-6p5h6-3-6p5h6-3-6p5h6p5-3b|
B|------------------------------------------------------------|
G|------------------------------------------------------------|
D|------------------------------------------------------------|
A|------------------------------------------------------------|
D|------------------------------------------------------------|


Guitar 1
E|--6p5h6-3-6p5h6-3-6p5h6-3-6p5h6-8-6p5h6-3-6p5h6-3-6p5h6-3--- ----6p5h6p5-3b|
B|------------------------------------------------------------ --------------|
G|------------------------------------------------------------ 2X--------------|
D|------------------------------------------------------------ --------------|
A|------------------------------------------------------------ --------------|
D|------------------------------------------------------------ --------------|

Guitar 2
E|----------------------------------------------------------------------|
B|----------------------------------------------------------------------|
G|-------------3333333--------------------------------3333333---------5-|
D|--xx-5555555-3333333-3333333-10101010101010-5555555-3333333-3333333-5-| 2X
A|--xx-5555555-1111111-3333333-10101010101010-5555555-1111111-3333333-3-|
D|--xx-5555555---------3333333-10101010101010-5555555---------3333333---|

Guitar 2 ("Many times i walk the line")
E|------------------------------|
B|------------------------------|
G|--5-555m-3-333m--------5-555m-|
D|--5-555m-3-333m-3-333m-5-555m-| 2X
A|--5-555m-1-111m-3-333m-3-333m-|
D|--5-555m--------3-333m--------|

Guitar 1 ("I no how it feels to have to start again")
E|--3h6p5h6-3h6p5h6-3h6p5h6-7-6p5h6 -3h6p5h6-3h6p5h6-3b|
B|--------------------------------- -------------------|
G|--------------------------------- -------------------|
D|--------------------------------- 3X-------------------|
A|--------------------------------- -------------------|
D|--------------------------------- -------------------|

Guitar 2
E|-------------|
B|-------------|
G|-----3-----5-|
D|--5--3--3--5-|
A|--5--1--3--3-|
D|--5-----3----|

Guitar 1 ("I'm gunna make a comeback")
E|----6p5h6-3-6p5h6-3-6p5h6-3-6p5h6-8-6p5h6-3-6p5h6-3-|
B|----------------------------------------------------|
G|----------------------------------------------------|
D|----------------------------------------------------| 2X
A|----------------------------------------------------|
D|----------------------------------------------------|

Guitar 2
E|----------------------------------------- -----|
B|----------------------------------------- -----|
G|----------3333333------------------------ -----|
D|--5555555-3333333-3333333-10101010101010- 2X--10-|
A|--5555555-1111111-3333333-10101010101010- --10-|
D|--5555555---------3333333-10101010101010- --10-|

Guitar 2 ("Look into my eyes and see")
E|------------------------------10-|
B|------------------------------10-|
G|--5-555m-3-333m--------5-555m----|
D|--5-555m-3-333m-3-333m-5-555m----| 2X
A|--5-555m-1-111m-3-333m-3-333m----|
D|--5-555m--------3-333m-----------|


Guitar 1 (I no how it feels to haven't got a friend")
E|--3h6p5h6-3h6p5h6-3h6p5h6-7-6p5h6 -3h6p5h6-3h6p5h6-3b|
B|--------------------------------- -------------------|
G|--------------------------------- -------------------|
D|--------------------------------- 3X-------------------|
A|--------------------------------- -------------------|
D|--------------------------------- -------------------|

Guitar 2
E|-------------|
B|-------------|
G|-----3-----5-|
D|--5--3--3--5-|
A|--5--1--3--3-|
D|--5-----3----|



Guitar 1 ("I'm gunna make a comeback")
E|----6p5h6-3-6p5h6-3-6p5h6-3-6p5h6-8-6p5h6-3-6p5h6-3-|
B|----------------------------------------------------|
G|----------------------------------------------------|
D|----------------------------------------------------|
A|----------------------------------------------------|
D|----------------------------------------------------|

Guitar 2
E|-----------------------------------------|
B|-----------------------------------------|
G|----------3333333------------------------|
D|--5555555-3333333-3333333-10101010101010-|
A|--5555555-1111111-3333333-10101010101010-|
D|--5555555---------3333333-10101010101010-|

Guitar 1 ("Risk it all imma risk it all")
E|--6p5h6-3-6p5h6-3-6p5h6-3-6-8-10-|
B|---------------------------------|
G|---------------------------------|
D|---------------------------------| 2X
A|---------------------------------|
D|---------------------------------|

Guitar 2
E|----------------------------------------------- ----|
B|----------------------------------------------- ----|
G|----------3333333------------------------------ ----|
D|--5555555-3333333-3-3-3m-3-3-3m-10101010101010- 2X-10-|
A|--5555555-1111111-3-3-3m-3-3-3m-10101010101010- -10-|
D|--5555555---------3-3-3m-3-3-3m-10101010101010- -10-|

Guitar 1
E|----------|
B|----------|
G|----------|
D|--17-12-8-|
A|----------|
D|----------|

Guitar 2
E|----|
B|----|
G|----|
D|--5-|
A|--5-|
D|--5-|


Guitar 2 ("The lights on")
E|----------|
B|----------|
G|----3---5-|
D|--5-3-3-5-|
A|--5-1-3-3-|
D|--5---3---|


Guitar 2 ("I'm gunna make a comeback")
E|-----------------------------------------|
B|-----------------------------------------|
G|----------3333333------------------------|
D|--5555555-3333333-3333333-10101010101010-|
A|--5555555-1111111-3333333-10101010101010-|
D|--5555555---------3333333-10101010101010-|


Guitar 1 ("I'm gunna make a comeback")
E|----6p5h6-3-6p5h6-3-6p5h6-3-6p5h6-8-6p5h6-3-6p5h6-3-|
B|----------------------------------------------------|
G|----------------------------------------------------|
D|----------------------------------------------------| 4X
A|----------------------------------------------------|
D|----------------------------------------------------|

Guitar 2
E|-----------------------------------------|
B|-----------------------------------------|
G|----------3333333------------------------|
D|--5555555-3333333-3333333-10101010101010-| 4X
A|--5555555-1111111-3333333-10101010101010-|
D|--5555555---------3333333-10101010101010-|

Guitar 2 ("Imma come back")
E|----------|
B|----------|
G|----3---5-|
D|--5-3-3-5-|
A|--5-1-3-3-|
D|--5---3---|


Guitar Tab Creator is intended to store guitar tab created through the tool. It currently does not support in-line text editing. Any text you place in here will be lost. If you need to comment on your tab, please use the "Tab Notes" section located below.