Castle of Glass by Linkin Park

 INTRO
Lead Guitar

Octave Chords Optional
E|-----------------| |-----------------|
B|-----------------| |-----------------|
G|-66-8986-446-----| |---------------2-|
D|-xx-xxxx-xxx-446-| x3 |-777777-999999-x-|
A|-44-6764-224-xxx-| |-xxxxxx-xxxxxx-4-|
E|-------------224-| |-555555-777777---|

Alternative

E|------------------------------------------------------------------------|
B|------------------------------------------------------------------------|
G|------------------------------------------------------------------------|
D|------------------------------------------------------------------------|
A|---4--4-4-4-6--7-7--6-6-4--2--2-2-4-------------------------------------|
E|-------------------------------------2--2-2-4---------------------------|


E|------------------------------------------------------------------------|
B|------------------------------------------------------------------------|
G|------------------------------------------------------------------------|
D|------------------------------------------------------------------------|
A|---------------------------------------------------------------------4--|
E|----5--5-5--5-5-5--5--5-5--5-5-5--7--7-7--7-7-7--7--7-7--7-7-7----------|

First Verse
Lead Guitar

E|-------------|
B|-------------|
G|-------------|
D|-------------|
A|-4--4--6 7/4-|
E|-------------|

Second Verse

E|-------------------------------------------------------------------------|
B|-------------------------------------------------------------------------|
G|-------------------------------------------------------------------------|
D|-------------------------------------------------------------------------| x 2
A|--4-4--4-4--4-4--4-4--4-4--4-4--4-4--4-4--6-6--6-6--6-6--6-6--7-4-4--4-4-|
E|-------------------------------------------------------------------------|


First Chorus
Lead Guitar

(Single Notes)
E|----------------------------------------------|
B|----------------------------------------------|
G|-14-12-11-9-9-13-11-911-13-14-12-11-9-9-13-11-|
D|----------------------------------------------|
A|----------------------------------------------|
E|----------------------------------------------|


INTRO X2 WITH...

Backing Guitar
E|----------|
B|----------|
G|--666-666-| <-- This plays in the background of the intro
D|--666-666-|
A|--444-444-|
E|----------|

Verse

Lead Guitar
E|-------------------------------------------------------------------------|
B|-------------------------------------------------------------------------|
G|-------------------------------------------------------------------------|
D|-------------------------------------------------------------------------| x1
A|--4-4--4-4--4-4--4-4--4-4--4-4--4-4--4-4--6-6--6-6--6-6--6-6--7-4-4--4-4-|
E|-------------------------------------------------------------------------|


Backing Guitar
E|------------|
B|------------|
G|-6--8--9--6-| <-Play matching the lead except full strumming
D|-x--x--x--x-|
A|-4--6--7--4-|
E|------------|


Chorus

LEAD GUITAR
E|--------------------------------------------------------|
B|--------------------------------------------------------|
G|-1113-141414141414-131199999913-1111119-11-131313131313-|
D|-x x -x x x x x x -x x xxxxxxx -xxxxxxx-x--x x x x x x--|
A|-9 11-121212121212-119 77777711-9999997-9--111111111111-|
E|--------------------------------------------------------|


E|-----------------------------------|
B|-----------------------------------|
G|--141414141414-131199999913-111111-|
D|--x x x x x x -x x xxxxxxx -xxxxxx-|
A|--121212121212-119 77777711-999999-|
E|-----------------------------------|

BACKING GUITAR
E|------------------------------------------------------|
B|------------------------------------------------------|
G|-66666666-99999999-1111111111111111-13131313-11111111-|
D|-66666666-99999999-1111111111111111-13131313-11111111-|
A|-44444444-77777777-9999999999999999-11111111-99999999-|
E|------------------------------------------------------|




INTRO VARIATION

Lead Guitar

Octave Chords Optional
E|-----------------|
B|-----------------|
G|-66-8986-446-----|
D|-xx-xxxx-xxx-446-|x1
A|-44-6764-224-xxx-|
E|-------------224-|

E|---------------------|
B|---------------------|
G|-66-4-66-4-66-4-66-4-|
D|-xx-x-xx-x-xx-x-xx-x-|x1
A|-44-2-44-2-44-2-44-2-|
E|---------------------|

E|-----------------|
B|-----------------|
G|-66-8986-446-----|
D|-xx-xxxx-xxx-446-|x1
A|-44-6764-224-xxx-|
E|-------------224-|

E|---------------------|
B|---------------------|
G|-66-4-66-4-66-4-66-4-|
D|-xx-x-xx-x-xx-x-xx-x-|x1
A|-44-2-44-2-44-2-44-2-|
E|---------------------|

Alternative
E | ---------------------------------------------------------------|
B | ---------------------------------------------------------------|
G | ---------------------------------------------------------------|
D | ---------------------------------------------------------------| x2
A | --4--4--6--7--6--4--2--2--4--------2--4-4--2-4-4--2-4-4--2-4-4-|
E | ------------------------------2--------------------------------|

Backing Guitar

E|----------|
B|----------|
G|--666-666-| <-- This plays in the background of the intro
D|--666-666-|
A|--444-444-|
E|----------|

Bridge
Lead Guitar

(Single Strums)
E|-------------------------------|
B|-------------------------------|
G|--14-13-119-13-119-13119-11-13-|
D|--x--x--x-x-x--x x-x-x x-x--x--|
A|--12-11-9-7-11-9-7-119 7-9--11-|
E|-------------------------------|


E|-------------------|
B|-------------------|
G|--14-13119-9-13-11-|
D|--x -x x x-x-x--x--|
A|--12-119 7-7-11-9--|
E|-------------------|

Chorus
Lead Guitar
E|--------------------------------------------------------|
B|--------------------------------------------------------|
G|-1113-141414141414-131199999913-1111119-11-131313131313-|
D|-x x -x x x x x x -x x xxxxxxx -xxxxxxx-x--x x x x x x--|
A|-9 11-121212121212-119 77777711-9999997-9--111111111111-|
E|--------------------------------------------------------|


E|-----------------------------------|
B|-----------------------------------|
G|--141414141414-131199999913-111111-|
D|--x x x x x x -x x xxxxxxx -xxxxxx-|
A|--121212121212-119 77777711-999999-|
E|-----------------------------------|

BACKING GUITAR
E|------------------------------------------------------|
B|------------------------------------------------------|
G|-66666666-99999999-1111111111111111-13131313-11111111-|
D|-66666666-99999999-1111111111111111-13131313-11111111-|
A|-44444444-77777777-9999999999999999-11111111-99999999-|
E|------------------------------------------------------|


INTRO
Lead Guitar

Octave Chords Optional
E|-----------------| |-----------------|
B|-----------------| |-----------------|
G|-66-8986-446-----| |---------------2-|
D|-xx-xxxx-xxx-446-| x3 |-777777-999999-x-|
A|-44-6764-224-xxx-| |-xxxxxx-xxxxxx-4-|
E|-------------224-| |-555555-777777---|

Alternative

E|------------------------------------------------------------------------|
B|------------------------------------------------------------------------|
G|------------------------------------------------------------------------|
D|------------------------------------------------------------------------|
A|---4--4-4-4-6--7-7--6-6-4--2--2-2-4-------------------------------------|
E|-------------------------------------2--2-2-4---------------------------|


E|------------------------------------------------------------------------|
B|------------------------------------------------------------------------|
G|------------------------------------------------------------------------|
D|------------------------------------------------------------------------|
A|---------------------------------------------------------------------4--|
E|----5--5-5--5-5-5--5--5-5--5-5-5--7--7-7--7-7-7--7--7-7--7-7-7----------|
Guitar Tab Creator is intended to store guitar tab created through the tool. It currently does not support in-line text editing. Any text you place in here will be lost. If you need to comment on your tab, please use the "Tab Notes" section located below.