Always

(/) Slide Up  (\) Slide Down  (h) Hammer On  (p) Pull Off  (b) Bend (r) Release (v) Vibrato


INTRO
ELECTRIC 1
E|------------------- -----|
B|--10-12/14--------- -----|
G|-----------9-99h11- --9\-|
D|------------------- -----|
A|------------------- -----|
E|------------------- -----|

VERSE

ELECTRIC 2
E|---------|
B|---------|
G|-8-----4-|
D|-x-----x-| (play as you see fit)
A|-6-----2-|
E|---------|

CHORUS

ELECTRIC 1
E|-11--11- --9----9-|
B|---12--- ----12---|
G|-------- ---------|
D|-------- (play until you here the change ---------|
A|-------- ---------|
E|-------- ---------|
ELECTRIC 2
E|-----------------------|
B|-----------------------|
G|-4-6-8-9868-8-9868-4-6-|
D|-x-x-x-xxxx-x-xxxx-x-x-|
A|-2-4-6-7646-6-7646-2-4-|
E|-----------------------|
Guitar Tab Creator is intended to store guitar tab created through the tool. It currently does not support in-line text editing. Any text you place in here will be lost. If you need to comment on your tab, please use the "Tab Notes" section located below.