Auralee

(/) Slide Up  (\) Slide Down  (h) Hammer On  (p) Pull Off  (b) Bend (r) Release (v) Vibrato


E|-----------------------------------2--
B|-----------------------------------3--
G|--------------------1--------------2--
D|-----0-----0--2--------0--------------
A|--0-----4--------2--2-----4--2--4-----
E|--------------------------------------



E|-----2--2-----2--2-----------------2--------------------------------------2--
B|-----3--3-----3--3-----------------2--------------------------------------3--
G|-----4--4-----4--4-----------------3--------------------------------------2--
D|--4--4--4--4--4--4--4--4--2--0--2--2--4--4--4--5--4--2-----2--0--------------
A|-----------------------------------4--------------------2--------4--2--4-----
E|-----------------------------------2-----------------------------------------
http://www.guitartabcreator.com
Guitar Tab Creator is intended to store guitar tab created through the tool. It currently does not support in-line text editing. Any text you place in here will be lost. If you need to comment on your tab, please use the "Tab Notes" section located below.