Untitled

(/) Slide Up  (\) Slide Down  (h) Hammer On  (p) Pull Off  (b) Bend (r) Release (v) Vibrato


E|--------------------------------------------------------------------------------------------
B|--------------------------------------------------------------------------------------------
G|--------------------------------------------------------------------------------------------
D|--------------------------------------------------------------------------------------------
A|-----4--1-----------------------------4--1-----------------------------4--1-----------------
E|--1--------4--1--0--0--0--0--0--0--1--------4--1--0--0--0--0--0--0--1--------4--1--0--0-----



E|----------------------------------------------------------------------------------------------
B|----------------------------------------------------------------------------------------------
G|----------------------------------------------------------------------------------------------
D|----------------------------------------------------------------------------------------------
A|-----------------8--5-----------------------------8--5-----------------------------10--7------
E|--0--0--0--0--5--------8--5--0--0--0--0--0--0--5--------8--5--0--0--0--0--0--0--7---------10--



E|--------------------------------------------------------------------------------------------
B|--------------------------------------------------------------------------------------------
G|--------------------------------------------------------------------------------------------
D|--------------------------------------------------------------------------------------------
A|--------------------------8--5--------------4--1-----------------------------4--1-----------
E|--7--0--0--0--0--0--0--5--------8--5--0--1--------4--1--0--0--0--0--0--0--1--------4--1--0--
http://www.guitartabcreator.com
Guitar Tab Creator is intended to store guitar tab created through the tool. It currently does not support in-line text editing. Any text you place in here will be lost. If you need to comment on your tab, please use the "Tab Notes" section located below.