bloody crop

(/) Slide Up  (\) Slide Down  (h) Hammer On  (p) Pull Off  (b) Bend (r) Release (v) Vibrato


E|-------------------------------------------------------------------------------------------------
B|-------------------------------------------------------------------------------------------------
G|-------------------------------------------------------------------------------------------------
D|-------------------------------------------------------------------------------------------------
A|--12--10--10--12--10--10--12--10--12--10--10--12--10--10--12--10--12--10--10--12--10--10--12-----
E|-------------------------------------------------------------------------------------------------



E|-------------------------------------------------------------------------------------------------
B|-------------------------------------------------------------------------------------------------
G|-------------------------------------------------------------------------------------------------
D|--------------------------------------12--10--10--12--10--10--12--10--12--10--10--12--10--10-----
A|--10--12--10--10--12--10--10--12--10-------------------------------------------------------------
E|-------------------------------------------------------------------------------------------------



E|--------------------------------------------------------------------------------------------------
B|--------------------------------------------------------------------------------------------------
G|--------------------------------------------------------------------------------------------------
D|--12--10------------------------------------------------------------------------------------------
A|----------12--10--10--12--10--10--12--10--12--10--10--12--10--10--12--10--12--10--10--12--10--10--
E|--------------------------------------------------------------------------------------------------



E|---------------------------------------------------------------------------------------------------
B|---------------------------------------------------------------------------------------------------
G|---------------------------------------------------------------------------------------------------
D|------------------------------------------0--------0--------0-----0--------0--------5--3--0--------
A|--12--10--12--10--10--12--10--10--12--10--0--------0--------0-----0--------0--------5--3--0--------
E|------------------------------------------0--0--0--0--0--0--0--0--0--0--0--0--0--0--5--3--0--0--0--



E|--------------------------------------------------------------------------------------------------
B|--------------------------------------------------------------------------------------------------
G|--------------------------------------------------------------------------------------------------
D|--0--------0-----0--------0--------5--3--0--------0--------0-----0--------0--------5--3--0--------
A|--0--------0-----0--------0--------5--3--0--------0--------0-----0--------0--------5--3--0--------
E|--0--0--0--0--0--0--0--0--0--0--0--5--3--0--0--0--0--0--0--0--0--0--0--0--0--0--0--5--3--0--0--0--



E|-----------------------------------------------------------------------------------------------
B|-----------------------------------------------------------------------------------------------
G|-----------------------------------------------------------------------------------------------
D|--0--------0-----0--------0--------5--3--7--------7--------7-----7--------7--------7--5--7-----
A|--0--------0-----0--------0--------5--3--7--------7--------7-----7--------7--------7--5--7-----
E|--0--0--0--0--0--0--0--0--0--0--0--5--3--7--7--7--7--7--7--7--7--7--7--7--7--7--7--7--5--7-----



E|--------------------------------------------------------------------------------------------------
B|--------------------------------------------------------------------------------------------------
G|--------------------------------------------------------------------------------------------------
D|--------7--------7-----7--------7--------7--5--0--------0--------0-----0--------0--------5--3--0--
A|--------7--------7-----7--------7--------7--5--0--------0--------0-----0--------0--------5--3--0--
E|--7--7--7--7--7--7--7--7--7--7--7--7--7--7--5--0--0--0--0--0--0--0--0--0--0--0--0--0--0--5--3--0--



E|--------------------------------------------------------------------------------------------------
B|--------------------------------------------------------------------------------------------------
G|--------------------------------------------------------------------------------------------------
D|--------0--------0-----0--------0--------5--3--7--------7--------7-----7--------7--------7--5--7--
A|--------0--------0-----0--------0--------5--3--7--------7--------7-----7--------7--------7--5--7--
E|--0--0--0--0--0--0--0--0--0--0--0--0--0--5--3--7--7--7--7--7--7--7--7--7--7--7--7--7--7--7--5--7--



E|--------------------------------------------------------------------------------------------------
B|--------------------------------------------------------------------------------------------------
G|--------------------------------------------------------------------------------------------------
D|--------7--------7-----7--------7--------7--5--0--------0--------0-----0--------0--------5--3--0--
A|--------7--------7-----7--------7--------7--5--0--------0--------0-----0--------0--------5--3--0--
E|--7--7--7--7--7--7--7--7--7--7--7--7--7--7--5--0--0--0--0--0--0--0--0--0--0--0--0--0--0--5--3--0--



E|--------------------------------------------------------------------------------------------------
B|--------------------------------------------------------------------------------------------------
G|--------------------------------------------------------------------------------------------3-----
D|--------0--------0-----0--------0--------5--3--5--------5--------5-----5--------5--------3--1-----
A|--------0--------0-----0--------0--------5--3--5--------5--------5-----5--------5--------3--1-----
E|--0--0--0--0--0--0--0--0--0--0--0--0--0--5--3--5--5--5--5--5--5--5--5--5--5--5--5--5--5--3--1--1--



E|---------------------------------------------------------------------------------------------------
B|---------------------------------------------------------------------------------------------------
G|-----3--------3-----3--------3---------------------------------------------------------------------
D|-----1--------1-----1--------1--------3--8--------8--------8-----8--------10--3--0--------0--------
A|-----1--------1-----1--------1--------1--8--------8--------8-----8--------10--3--0--------0--------
E|--1--1--1--1--1--1--1--1--1--1--1--1--1--8--8--8--8--8--8--8--8--8--8--8--10--3--0--0--0--0--0--0--



E|--------------------------------------------------------------------------------------------------
B|--------------------------------------------------------------------------------------------------
G|--------------------------------------------------------------------------3--------3--------3-----
D|--0-----0--------0--------3--5--------5--------5-----5--------5--------3--1--------1--------1-----
A|--0-----0--------0--------3--5--------5--------5-----5--------5--------3--1--------1--------1-----
E|--0--0--0--0--0--0--0--0--3--5--5--5--5--5--5--5--5--5--5--5--5--5--5--3--1--1--1--1--1--1--1-----



E|------------------------------------------------------------------------------------------------
B|------------------------------------------------------------------------------------------------
G|-----3--------3---------------------------------------------------------------------------------
D|-----1--------1--------3--8--------8--------8-----8--------10--3--0--------0--------0-----0-----
A|-----1--------1--------1--8--------8--------8-----8--------10--3--0--------0--------0-----0-----
E|--1--1--1--1--1--1--1--1--8--8--8--8--8--8--8--8--8--8--8--10--3--0--0--0--0--0--0--0--0--0--0--



E|--------------------------------------------------------------------------------------------------
B|--------------------------------------------------------------------------------------------------
G|--------------------------------------------------------------------------------------------------
D|-----0--------3--0--------0--------0-----0--------0--------5--3--0--------0--------0-----0--------
A|-----0--------3--0--------0--------0-----0--------0--------5--3--0--------0--------0-----0--------
E|--0--0--0--0--3--0--0--0--0--0--0--0--0--0--0--0--0--0--0--5--3--0--0--0--0--0--0--0--0--0--0--0--



E|--------------------------------------------------------------------------------------------------
B|--------------------------------------------------------------------------------------------------
G|--------------------------------------------------------------------------------------------------
D|--0--------5--3--0--------0--------0-----0--------0--------5--3--0--------0--------0-----0--------
A|--0--------5--3--0--------0--------0-----0--------0--------5--3--0--------0--------0-----0--------
E|--0--0--0--5--3--0--0--0--0--0--0--0--0--0--0--0--0--0--0--5--3--0--0--0--0--0--0--0--0--0--0--0--



E|--------------------------------------------------------------------------------------------------
B|--------------------------------------------------------------------------------------------------
G|--------------------------------------------------------------------------------------------------
D|--0--------5--3--7--------7--------7-----7--------7--------7--5--7--------7--------7-----7--------
A|--0--------5--3--7--------7--------7-----7--------7--------7--5--7--------7--------7-----7--------
E|--0--0--0--5--3--7--7--7--7--7--7--7--7--7--7--7--7--7--7--7--5--7--7--7--7--7--7--7--7--7--7--7--



E|--------------------------------------------------------------------------------------------------
B|--------------------------------------------------------------------------------------------------
G|--------------------------------------------------------------------------------------------------
D|--7--------7--5--0--------0--------0-----0--------0--------5--3--0--------0--------0-----0--------
A|--7--------7--5--0--------0--------0-----0--------0--------5--3--0--------0--------0-----0--------
E|--7--7--7--7--5--0--0--0--0--0--0--0--0--0--0--0--0--0--0--5--3--0--0--0--0--0--0--0--0--0--0--0--



E|--------------------------------------------------------------------------------------------------
B|--------------------------------------------------------------------------------------------------
G|--------------------------------------------------------------------------------------------------
D|--0--------5--3--7--------7--------7-----7--------7--------7--5--7--------7--------7-----7--------
A|--0--------5--3--7--------7--------7-----7--------7--------7--5--7--------7--------7-----7--------
E|--0--0--0--5--3--7--7--7--7--7--7--7--7--7--7--7--7--7--7--7--5--7--7--7--7--7--7--7--7--7--7--7--



E|--------------------------------------------------------------------------------------------------
B|--------------------------------------------------------------------------------------------------
G|--------------------------------------------------------------------------------------------------
D|--7--------7--5--0--------0--------0-----0--------0--------5--3--0--------0--------0-----0--------
A|--7--------7--5--0--------0--------0-----0--------0--------5--3--0--------0--------0-----0--------
E|--7--7--7--7--5--0--0--0--0--0--0--0--0--0--0--0--0--0--0--5--3--0--0--0--0--0--0--0--0--0--0--0--



E|--------------------------------------------------------------------------------------------------
B|--------------------------------------------------------------------------------------------------
G|--------------------------------------------------------------3--------3--------3-----3--------3--
D|--0--------5--3--5--------5--------5-----5--------5--------3--1--------1--------1-----1--------1--
A|--0--------5--3--5--------5--------5-----5--------5--------3--1--------1--------1-----1--------1--
E|--0--0--0--5--3--5--5--5--5--5--5--5--5--5--5--5--5--5--5--3--1--1--1--1--1--1--1--1--1--1--1--1--



E|------------------------------------------------------------------------------------------------
B|------------------------------------------------------------------------------------------------
G|------------------------------------------------------------------------------------------------
D|--------3--8--------8--------8-----8--------10--3--0--------0--------0-----0--------0--------3--
A|--------1--8--------8--------8-----8--------10--3--0--------0--------0-----0--------0--------3--
E|--1--1--1--8--8--8--8--8--8--8--8--8--8--8--10--3--0--0--0--0--0--0--0--0--0--0--0--0--0--0--3--



E|-----------------------------------------------------------------------------------------------
B|-----------------------------------------------------------------------------------------------
G|-----------------------------------------------3--------3--------3-----3--------3--------------
D|--5--------5--------5-----5--------5--------3--1--------1--------1-----1--------1--------3--8--
A|--5--------5--------5-----5--------5--------3--1--------1--------1-----1--------1--------1--8--
E|--5--5--5--5--5--5--5--5--5--5--5--5--5--5--3--1--1--1--1--1--1--1--1--1--1--1--1--1--1--1--8--



E|------------------------------------------------------------------------------------------------
B|------------------------------------------------------------------------------------------------
G|------------------------------------------------------------------------------------------------
D|--------8--------8-----8--------10--3--0--------0--------0-----0--------0--------3--0--------0--
A|--------8--------8-----8--------10--3--0--------0--------0-----0--------0--------3--0--------0--
E|--8--8--8--8--8--8--8--8--8--8--10--3--0--0--0--0--0--0--0--0--0--0--0--0--0--0--3--0--0--0--0--



E|--------------------------------------------------------------------------------------------------
B|--------------------------------------------------------------------------------------------------
G|--------------------------------------------------------------------------------------------------
D|--------0--5--3--7--5--0--------0--------0--5--3--7--5--0--------0--------0--5--3--7--5--0--------
A|--------0--5--3--7--5--0--------0--------0--5--3--7--5--0--------0--------0--5--3--7--5--0--------
E|--0--0--0--5--3--7--5--0--0--0--0--0--0--0--5--3--7--5--0--0--0--0--0--0--0--5--3--7--5--0--0--0--



E|-----------------------------------------------------------------------------------------
B|-----------------------------------------------------------------------------------------
G|-----------------------------------------------------------------------------------------
D|--0--------0--5--3--7--0--------0--------0--0--------0--------0--0--------0--------0--2--
A|--0--------0--5--3--7--0--------0--------0--0--------0--------0--0--------0--------0--2--
E|--0--0--0--0--5--3--7--0--0--0--0--0--0--0--0--0--0--0--0--0--0--0--0--0--0--0--0--0--2--



E|--------------------------------------------------------------------------------------------------
B|--------------------------------------------------------------------------------------------------
G|--------------------------------------------------------------------------------------------------
D|------------------------------------------------------------------17--17--17--17--17--17--17--17--
A|--17--17--17--17--17--17--17--17--15--15--15--15--15--15--15--15----------------------------------
E|--------------------------------------------------------------------------------------------------



E|--------------------------------------------------------------------------------------------------
B|--------------------------------------------------------------------------------------------------
G|--------------------------------------------------------------------------------------------------
D|--15--15--15--15--15--15--15--15--14--14--14--14--14--14--14--14----------------------------------
A|------------------------------------------------------------------17--17--17--17--17--17--17--17--
E|--------------------------------------------------------------------------------------------------



E|--------------------------------------------------------------------------------------------------
B|--------------------------------------------------------------------------------------------------
G|--------------------------------------------------------------------------------------------------
D|----------------------------------17--17--17--17--17--17--17--17--15--15--15--15--15--15--15--15--
A|--15--15--15--15--15--15--15--15------------------------------------------------------------------
E|--------------------------------------------------------------------------------------------------



E|----------------------------------------------------------------------------------------------------
B|----------------------------------------------------------------------------------------------------
G|----------------------------------------------------------------------------------------------------
D|--14--14--14--14--14--14--14--14------------------------------------------------17--17--17--17--17--
A|----------------------------------17--17--17--17--17-----15--15--15--15--15-------------------------
E|------------------------------------------------------0----------------------0----------------------



E|--------------------------------------------------------------------------------------------------
B|--------------------------------------------------------------------------------------------------
G|--------------------------------------------------------------------------------------------------
D|-----15--15--15--14--14--14------------------------------------------------17--17--17--17--17-----
A|-----------------------------17--17--17--17--17-----15--15--15--15--15----------------------------
E|--0----------------------------------------------0----------------------0----------------------0--



E|-----------------------------------------------------------------------------------------------
B|-----------------------------------------------------------------------------------------------
G|-----------------------------------------------------------------------------------------------
D|--15--15--15--14--14--14------------------------------------------------17--17--17--17--17-----
A|--------------------------17--17--17--17--17-----15--15--15--15--15----------------------------
E|----------------------------------------------0----------------------0----------------------0--



E|-----------------------------------------------------------------------------------------------
B|-----------------------------------------------------------------------------------------------
G|-----------------------------------------------------------------------------------------------
D|--15--15--15--14--14--14------------------------------------------------17--17--17--17--17-----
A|--------------------------17--17--17--17--17-----15--15--15--15--15----------------------------
E|----------------------------------------------0----------------------0----------------------0--



E|-----------------------------------------------------------------------------------------------
B|-----------------------------------------------------------------------------------------------
G|-----------------------------------------------------------------------------------------------
D|--15--15--15--14--14--14--0--------0--------0-----0--------0--------5--3--0--------0--------0--
A|--------------------------0--------0--------0-----0--------0--------5--3--0--------0--------0--
E|--------------------------0--0--0--0--0--0--0--0--0--0--0--0--0--0--5--3--0--0--0--0--0--0--0--



E|-----------------------------------------------------------------------------------------------
B|-----------------------------------------------------------------------------------------------
G|-----------------------------------------------------------------------------------------------
D|-----0--------0--------5--3--0--------0--------0-----0--------0--------5--3--0--------0--------
A|-----0--------0--------5--3--0--------0--------0-----0--------0--------5--3--0--------0--------
E|--0--0--0--0--0--0--0--5--3--0--0--0--0--0--0--0--0--0--0--0--0--0--0--5--3--0--0--0--0--0--0--



E|--------------------------------------------------------------------------------------------------
B|--------------------------------------------------------------------------------------------------
G|--------------------------------------------------------------------------------------------------
D|--0-----0--------0--------5--3--7--------7--------7-----7--------7--------7--5--7--------7--------
A|--0-----0--------0--------5--3--7--------7--------7-----7--------7--------7--5--7--------7--------
E|--0--0--0--0--0--0--0--0--5--3--7--7--7--7--7--7--7--7--7--7--7--7--7--7--7--5--7--7--7--7--7-----



E|-----------------------------------------------------------------------------------------------
B|-----------------------------------------------------------------------------------------------
G|-----------------------------------------------------------------------------------------------
D|-----7-----7--------7--------7--5--0--------0--------0-----0--------0--------5--3--0--------0--
A|-----7-----7--------7--------7--5--0--------0--------0-----0--------0--------5--3--0--------0--
E|--7--7--7--7--7--7--7--7--7--7--5--0--0--0--0--0--0--0--0--0--0--0--0--0--0--5--3--0--0--0--0--



E|-----------------------------------------------------------------------------------------------------
B|-----------------------------------------------------------------------------------------------------
G|-----------------------------------------------------------------------------------------------------
D|--------0-----0--------0--------5--3--7--------7--------7-----7--------7--------7--5--7--------7-----
A|--------0-----0--------0--------5--3--7--------7--------7-----7--------7--------7--5--7--------7-----
E|--0--0--0--0--0--0--0--0--0--0--5--3--7--7--7--7--7--7--7--7--7--7--7--7--7--7--7--5--7--7--7--7-----



E|-----------------------------------------------------------------------------------------------
B|-----------------------------------------------------------------------------------------------
G|-----------------------------------------------------------------------------------------------
D|--------7-----7--------7--------7--5--0--------0--------0-----0--------0--------5--3--0--------
A|--------7-----7--------7--------7--5--0--------0--------0-----0--------0--------5--3--0--------
E|--7--7--7--7--7--7--7--7--7--7--7--5--0--0--0--0--0--0--0--0--0--0--0--0--0--0--5--3--0--0--0--



E|-----------------------------------------------------------------------------------------------
B|-----------------------------------------------------------------------------------------------
G|--------------------------------------------------------------------------------------3--------
D|--0--------0-----0--------0--------5--3--5--------5--------5-----5--------5--------3--1--------
A|--0--------0-----0--------0--------5--3--5--------5--------5-----5--------5--------3--1--------
E|--0--0--0--0--0--0--0--0--0--0--0--5--3--5--5--5--5--5--5--5--5--5--5--5--5--5--5--3--1--1--1--



E|------------------------------------------------------------------------------------------------
B|------------------------------------------------------------------------------------------------
G|--3--------3-----3--------3---------------------------------------------------------------------
D|--1--------1-----1--------1--------3--8--------8--------8-----8--------10--3--0--------0--------
A|--1--------1-----1--------1--------1--8--------8--------8-----8--------10--3--0--------0--------
E|--1--1--1--1--1--1--1--1--1--1--1--1--8--8--8--8--8--8--8--8--8--8--8--10--3--0--0--0--0--0--0--



E|-----------------------------
B|-----------------------------
G|-----------------------------
D|--0-----0--------0--------3--
A|--0-----0--------0--------3--
E|--0--0--0--0--0--0--0--0--3--
http://www.guitartabcreator.com
Guitar Tab Creator is intended to store guitar tab created through the tool. It currently does not support in-line text editing. Any text you place in here will be lost. If you need to comment on your tab, please use the "Tab Notes" section located below.