Song2

(/) Slide Up  (\) Slide Down  (h) Hammer On  (p) Pull Off  (b) Bend (r) Release (v) Vibrato
E|----10----10----10----10----|----10----10----10----10----|----
B|----8-----8-----8-----8-----|----8-----8-----8-----8-----|----
G|----------0-----0-----0-----|----------0-----0-----0-----|----
D|----------------------10----|----------------------10----|----
A|----------------------------|----------------------------|----
E|----------------0-----8-----|----------------0-----8-----|----



E|-----------------------------|----
B|-----------------------------|----
G|--------------5----5----7----|----
D|----2----4----5----5---------|----
A|----2----2----2----3----5----|----
E|----0------------------------|----



E|----10----10----10----10----10----|----10----10----10----10----10----|----
B|----8-----8-----8-----8-----8-----|----8-----8-----8-----8-----8-----|----
G|----0-----------0-----0-----0-----|----0-----------0-----0-----0-----|----
D|----------------------------10----|----------------------------10----|----
A|----------------------------------|----------------------------------|----
E|----------------0-----0-----8-----|----------------------0-----8-----|----



E|--------------------------------------------|-----------------------------|---------
B|--------------------------------------------|-----------------------------|---------
G|----5----5----5----5----7----7----7----7----|------------------------7----|---------
D|----5----5----5----5----7----7----7----7----|----2----5----5----5---------|---------
A|----3----3----3----3----5----5----5----5----|----2----2----2----5----5----|----5----
E|--------------------------------------------|----0--------------3---------|---------



E|--------------------------------------------|-----------------------------|----
B|--------------------------------------------|-----------------------------|----
G|----5----5----5----5----7----7----7----7----|-----------------------------|----
D|----5----5----5----5----7----7----7----7----|----2----4----5----5----7----|----
A|----3----3----3----3----5----5----5----5----|----2----2----2--------------|----
E|--------------------------------------------|----0--------------3----5----|----



E|-------------------------------------------------|---------------------------------------|---
B|-----0-----0-----0-----0-----0-----------0-------|-----0-------0-------0-----------0-----|---
G|-------------------------------0-0-0-------0-0-0-|---0-------0---0-------0-0-0-------0-0-|---
D|-------------------------------------------------|---------------------------------------|---
A|-3-3---3-3---5-5---5-5---7-7---------7-7---------|-3-----5-5-------7-7---------7-7-------|---
E|-------------------------------------------------|---------------------------------------|---



E|-----------------------------------------------|-------------------------------------------|-
B|-----0-----0-----0-----0---0-----------0-------|-----0-------0-----------------------------|-
G|-----------------------------0-0-0-------0-0-0-|---0-------0---0---------------------------|-
D|-----------------------------------------------|-------------------------------------------|-
A|-3-3---3-3---5-5---5-5---7---------7-7---------|-3-----5-5-------7-7-7-7-7-7-7-7-7-7-7-7-7-|-
E|-----------------------------------------------|-------------------------------------------|-



E|----------|----------|----------------|----------------|---------------------------------|---
B|-12-------|-12-------|----15----13-12-|----15----13-12-|---------------------------------|---
G|----12-12-|----12-12-|-12----12-------|-12----12-------|-5-5-7---------------------------|---
D|----------|----------|----------------|----------------|-5-5-7---------------------------|---
A|----------|----------|----------------|----------------|-3-3-5-7-7-7-7-7-7-7-7-7-7-7-7-7-|---
E|----------|----------|----------------|----------------|---------------------------------|---



E|-----------------|-----------------|----
B|-----------------|-----------------|----
G|-----4--5--------|-----4--5-----7--|----
D|--2--4--5--5--5--|--2--4--5--5--7--|----
A|--2--2--3--5--5--|--2--2--3--5--5--|----
E|--0--------3--2--|--0--------3-----|----



E|-15-------------------------------------|-
B|----12-15-15-15-15-13-13-12-12-13-12----|-
G|-------------------------------------12-|-
D|----------------------------------------|-
A|----------------------------------------|-
E|----------------------------------------|-



E|-----
B|-----
G|-----
D|---4-
A|-2---
E|-----



E|-------------|-
B|-------------|-
G|-4-4-4-4-5---|-
D|-4-4-4-4-5-5-|-
A|-2-2-2-2-3-5-|-
E|-----------3-|-



E|----------------|-
B|----------------|-
G|-12-12-12-12-14-|-
D|----------------|-
A|-10-10-10-10-12-|-
E|----------------|-



E|-------------
B|-------------
G|--12--9------
D|---------10--
A|--10--7--10--
E|---------8---



E|---------|---------------|-
B|---------|---------------|-
G|-----5-5-|-------------5-|-
D|-2-2-5-5-|-5-5-5-5-2-2-5-|-
A|-2-2-3-3-|-5-5-5-5-2-2-3-|-
E|-0-0-----|-3-3-3-3-0-0---|-



E|-------------
B|-------------
G|-------------
D|-----5-----5-
A|-------------
E|-3-3---3-3---



E|-|-|-|-
B|-|-|-|-
G|-|-|-|-
D|-|-|-|-
A|-|-|-|-
E|-|-|-|-



E|---------------|-------
B|---------------|-------
G|---------------|-------
D|-----5-----4-5-|-----5-
A|---------------|-------
E|-3-3---3-3-----|-0-0---



E|-----------------------|-----------------------|-----------------------|--
B|-----------------------|-----------------------|-----------------------|--
G|-----------------------|--------0--------------|-----------------------|--
D|--------5--------4--5--|--------5--------4--5--|--------5--------4--5--|--
A|-----------------------|-----------------------|--3--3-----3--3--------|--
E|--3--3-----3--3--------|--0--0-----0--0--------|-----------------------|--



E|-15-15-12-------------|-------------------------------|-
B|----------12-15-15-15-|-15-15-15-13-13-12-12-13-12----|-
G|----------------------|----------------------------12-|-
D|----------------------|-------------------------------|-
A|----------------------|-------------------------------|-
E|----------------------|-------------------------------|-



E|-15-------------|-------------------------------|-
B|----12-15-15-15-|-15-15-15-13-13-12-12-13-12----|-
G|----------------|----------------------------12-|-
D|----------------|-------------------------------|-
A|----------------|-------------------------------|-
E|----------------|-------------------------------|-



E|---|----|-
B|---|----|-
G|-7-|-12-|-
D|---|----|-
A|-5-|-10-|-
E|---|----|-
http://www.guitartabcreator.com
Guitar Tab Creator is intended to store guitar tab created through the tool. It currently does not support in-line text editing. Any text you place in here will be lost. If you need to comment on your tab, please use the "Tab Notes" section located below.