Solar Against the Eclipse - Set them free

(/) Slide Up  (\) Slide Down  (h) Hammer On  (p) Pull Off  (b) Bend (r) Release (v) Vibrato
E|-5-5-5-5-5-5-3-3-3-3-3-3-|-5-5-5-5-5-5-3-3-3-3-3-3-3-|-
B|-5-5-5-6-6-6-5-5-5-3-3-3-|-5-5-5-6-6-6-5-5-5-3-3-3-3-|-
G|-5-5-5-5-5-5-5-5-5-5-5-5-|-5-5-5-5-5-5-5-5-5-5-5-5-4-|-
D|-------------------------|---------------------------|-
A|-------------------------|---------------------------|-
E|-------------------------|---------------------------|-



E|----------------------------------------|---------
B|----------------------------------------|---------
G|----------5---------12----5-------------|---------
D|---------------5---------------5--------|---------
A|----12----------------------------------|---------
E|----------------------------------------|---------



E|---15---13---12---10---12---8---|---8---10---12---13---10---|---
B|---13---13---13---13---13---8---|---8---13---13---13---13---|---
G|--------------------------------|---------------------------|---
D|--------------------------------|---------------------------|---
A|--------------------------------|---------------------------|---
E|--------------------------------|---------------------------|---



E|------------------------|---------------------------|--
B|------------------------|---------------------------|--
G|------------------------|---------------------7--5--|--
D|--7--7--7--10--5--3--0--|--7--7--10--2--3--5--7--5--|--
A|--7--7--7--10--5--3--0--|--7--7--10--2--3--5--5--3--|--
E|--7--7--7--10--5--3--0--|--7--7--10--2--3--5--------|--



E|---------------------------|-------------------------|--
B|---------------------------|-------------------------|--
G|--9--10--9--7--5--7--9--7--|--9--12--10--9--7--5--4--|--
D|---------------------------|-------------------------|--
A|--7--8---7--5--3--5--7--5--|--7--10--8---7--5--3--2--|--
E|---------------------------|-------------------------|--



E|-------------------------------------------------------|-
B|-------------------------------------------------------|-
G|-------------------------------------------------------|-
D|-7-7-7-7-7-7-10-10-10-10-10-10-3-3-3-3-3-3-0-0-0-0-0-0-|-
A|-7-7-7-7-7-7-10-10-10-10-10-10-3-3-3-3-3-3-0-0-0-0-0-0-|-
E|-7-7-7-7-7-7-10-10-10-10-10-10-3-3-3-3-3-3-0-0-0-0-0-0-|-



E|----------------------|-------------|--
B|----------------------|-------------|--
G|--5--12--10--9--7--5--|---------12--|--
D|----------------------|--9--10------|--
A|--3--10--8---7--5--3--|-------------|--
E|----------------------|-------------|--



E|-----------------|--
B|-----------------|--
G|-----------------|--
D|--7--5--3--2--6--|--
A|--7--5--3--2--6--|--
E|--7--5--3--2--6--|--



E|-----------------------|-----------|-----|--
B|-----------------------|-----------|-----|--
G|-----------5--7--5--4--|-----------|-----|--
D|--7--3--5--5--7--5--4--|--7--3--0--|--7--|--
A|--7--3--5--3--5--3--2--|--7--3--0--|--7--|--
E|--7--3--5--------------|--7--3--0--|--7--|--



E|-------------------------------------|-
B|-------------------------------------|-
G|-------------------------9-9------12-|-
D|-10-10-9-9-9-10-10-10-10-----9-10----|-
A|-------------------------------------|-
E|-------------------------------------|-



E|-
B|-
G|-
D|-
A|-
E|-



E|--5--5--5--5--5--5--3--3--3--3--3--3--|--5--5--5--5--5--5--3--3--3--|--
B|--5--5--5--6--6--6--5--5--5--3--3--3--|--5--5--5--6--6--6--5--5--3--|--
G|--5--5--5--5--5--5--5--5--5--5--5--5--|--5--5--5--5--5--5--5--5--5--|--
D|--------------------------------------|-----------------------------|--
A|--------------------------------------|-----------------------------|--
E|--------------------------------------|-----------------------------|--



E|----------------|---------|-------------|-
B|----------------|---------|-------------|-
G|----------------|---------|-------------|-
D|-----7-10-----9-|-----2-3-|-----5---3-2-|-
A|----------------|---------|-------------|-
E|-7-7------7-7---|-3-3-----|-5-5---5-----|-



E|------------------|---------------|--
B|------------------|---------------|--
G|------------------|---------------|--
D|--7--7--10--3--0--|--7--10--3--5--|--
A|--7--7--10--3--0--|--7--10--3--5--|--
E|--7--7--10--3--0--|--7--10--3--5--|--



E|-------------------------------------------------|-
B|-------------------------------------------------|-
G|---------------12-10-9-10-9----9----9----10----9-|-
D|-10-9-10-10-10--------------10---10---10----10---|-
A|-------------------------------------------------|-
E|-------------------------------------------------|-



E|-------------------|------------------------|-
B|-------------------|------------------------|-
G|-9----9----10----9-|-12----10----9----10----|-
D|---10---10----10---|----10----10---10----10-|-
A|-------------------|------------------------|-
E|-------------------|------------------------|-



E|-----------------------------------------------------------------|-
B|-----------------------------------------------------------------|-
G|-------------------------9-----9---------------------------------|-
D|-----10-----9-----10-----------------5-----5---5-----5-----5---5-|-
A|-0-0----0-0---0-0----0-0---0-0---3-3---3-3---3---2-2---2-2---2---|-
E|-----------------------------------------------------------------|-



E|---------------|-
B|---------------|-
G|---------------|-
D|-7-7-10-10-3-5-|-
A|-7-7-10-10-3-5-|-
E|-7-7-10-10-3-5-|-



E|-----------|-----------|--
B|-----------|-----------|--
G|-----------|-----------|--
D|--7--3--5--|--7--3--0--|--
A|--7--3--5--|--7--3--0--|--
E|--7--3--5--|--7--3--0--|--



E|---------------|-----------------------|------------------|------------------|--------------------------------|--
B|---------------|-----------------------|------------------|------------------|--------------------------------|--
G|--5--7--9--10--|--5--7--12--10--9--10--|--12--14--16--17--|--19--17--16--17--|--12--10--9--10--9--7--9--7--5--|--
D|---------------|-----------------------|------------------|------------------|--------------------------------|--
A|--3--5--7--8---|--3--5--10--8---7--8---|--10--12--14--15--|--17--15--14--15--|--10--8---7--8---7--5--7--5--3--|--
E|---------------|-----------------------|------------------|------------------|--------------------------------|--



E|-----------|--------------|-----------|--------|--
B|-----------|--------------|-----------|--------|--
G|-----------|--------------|-----------|--------|--
D|--7--5--3--|--7--5--3--2--|--7--5--3--|--2--6--|--
A|--7--5--3--|--7--5--3--2--|--7--5--3--|--2--6--|--
E|--7--5--3--|--7--5--3--2--|--7--5--3--|--2--6--|--



E|--------------|-----------|--------|--
B|--------------|-----------|--------|--
G|--9--7--5--4--|--9--7--5--|--------|--
D|--------------|-----------|--2--6--|--
A|--7--5--3--2--|--7--5--3--|--2--6--|--
E|--------------|-----------|--2--6--|--



E|--------|--
B|--------|--
G|--------|--
D|--7--7--|--
A|--7--7--|--
E|--7--7--|--
http://www.guitartabcreator.com
Guitar Tab Creator is intended to store guitar tab created through the tool. It currently does not support in-line text editing. Any text you place in here will be lost. If you need to comment on your tab, please use the "Tab Notes" section located below.