Solar Against the Eclipse - Last Chapter

(/) Slide Up  (\) Slide Down  (h) Hammer On  (p) Pull Off  (b) Bend (r) Release (v) Vibrato
E|-----------------|---------2---|-----------------|---------------|-----------------|-
B|---------2-------|-------------|---------4-------|-----7---------|-----7-----------|-
G|-4---4-----4---4-|-4---4-----4-|-----6-----6---6-|-----------8-9-|-----------8-9-9-|-
D|---4---4-----4---|---4---4-----|---6---6-----6---|-9-9---9-9-----|-9-9---9-9-------|-
A|-----------------|-------------|-4---------------|---------------|-----------------|-
E|-----------------|-------------|-----------------|---------------|-----------------|-



E|-----------|-------------|-------------------------------------|-
B|---------2-|---------4-0-|-------------------------------------|-
G|-4---4-----|-6---6-------|-9---9---8---8---9---9---11-11-11-11-|-
D|---4---4---|---6---6-----|---9---9---9---9---9---9-------------|-
A|-----------|-------------|-------------------------------------|-
E|-----------|-------------|-------------------------------------|-



E|--------------------------------------------|-----------------------------------|----
B|--------------------------------------------|-----------------------------------|----
G|----4----6----9----8----9----8----8----8----|----4----6----9----8----9----11----|----
D|----4----6----9----9----9----9----9----9----|-----------------------------------|----
A|----2----4----7----7----7----7----7----7----|----2----4----7----6----7----9-----|----
E|--------------------------------------------|-----------------------------------|----



E|------------------------|----
B|------------------------|----
G|------------------------|----
D|----6----4----2----2----|----
A|----6----4----2----2----|----
E|----4----2----0----0----|----



E|--------------|--
B|--------------|--
G|--------------|--
D|--6--4--2--2--|--
A|--6--4--2--2--|--
E|--4--2--0--0--|--



E|------------------------|----------------------|-
B|------------------------|----------------------|-
G|-4-11-9-8-9-6-8-6-8-9-8-|-4-11-9-8-6-8-4-6-8-4-|-
D|------------------------|----------------------|-
A|-2-9--7-6-7-4-6-4-6-7-6-|-2-9--7-6-4-6-2-4-6-2-|-
E|------------------------|----------------------|-



E|----------------------------------|----
B|----------------------------------|----
G|----4----6----9----8----9----8----|----
D|----4----6----9----9----9----9----|----
A|----2----4----7----7----7----7----|----
E|----------------------------------|----



E|-------------------------------------------------------------------------------|--
B|-------------------------------------------------------------------------------|--
G|--------11--------11--9--8--6--------11--------11--------11--------------------|--
D|--8--9------8--9---------------8--9------8--9------8--9------9--9--8--9--8--6--|--
A|-------------------------------------------------------------------------------|--
E|-------------------------------------------------------------------------------|--



E|---------------------------|--
B|---------------------------|--
G|---------------------------|--
D|--9--11--13--11--9--11--9--|--
A|---------------------------|--
E|---------------------------|--



E|--------------|--
B|--------------|--
G|--4-----------|--
D|--4--4--6--2--|--
A|--2--4--6--2--|--
E|-----2--4--0--|--



E|---------|-----------|-
B|---------|-----------|-
G|-4-3-4-6-|-4-3-4-8-4-|-
D|---------|-----------|-
A|-2-1-2-4-|-2-1-2-6-2-|-
E|---------|-----------|-



E|---|-
B|---|-
G|-4-|-
D|---|-
A|-2-|-
E|---|-



E|----------------------------------------------------|-
B|-12-12-12-14-12-12-12-14-12-16-14-17-16-14-14-16-14-|-
G|----------------------------------------------------|-
D|----------------------------------------------------|-
A|----------------------------------------------------|-
E|----------------------------------------------------|-



E|--------------------------------------------|-------------------|----
B|--------------------------------------------|-------------------|----
G|--------------------------------------------|-------------------|----
D|----6----4----2----2----2----2----2----2----|----6----4----2----|----
A|----6----4----2----2----2----2----2----2----|----6----4----2----|----
E|----4----2----0----0----0----0----0----0----|----4----2----0----|----



E|------------------------------------|--
B|------------------------------------|--
G|------------------------------------|--
D|--9--11--13--11--16--14--13--11--9--|--
A|------------------------------------|--
E|------------------------------------|--



E|---------------------------------------|---------------------------------------|----
B|---------------------------------------|---------------------------------------|----
G|-----------------------------4---------|-----------------------------4----4----|----
D|----6----4----2----2----2----4----4----|----6----2----4----4----4----4----4----|----
A|----6----4----2----2----2----2----4----|----6----2----4----4----4----2----1----|----
E|----4----2----0----0----0---------2----|----4----0----2----2----2--------------|----



E|-------------------------------------|-------------------------0---------|-
B|-------------------------2-------2-4-|-------4---------4---------4-------|-
G|-------4-------4---------------------|---------4---------4-3-4-----4-3-6-|-
D|---6-------4-----4---2-------2-------|---6---------4---------------------|-
A|-------------------------------------|-----------------------------------|-
E|-4---4---2---2-----0---0---0---0-----|-4---4-----2---2-------------------|-



E|-----|-
B|-----|-
G|-3-4-|-
D|-----|-
A|-1-2-|-
E|-----|-



E|-------------------------|----
B|-------------------------|----
G|----11----9----3----4----|----
D|----11----9----3----4----|----
A|----9-----7----1----2----|----
E|-------------------------|----



E|-------------------------|----
B|-------------------------|----
G|----11----9----3----4----|----
D|-------------------------|----
A|----9-----7----1----2----|----
E|-------------------------|----



E|-------------------------|-
B|---------2---------4-0---|-
G|-4---4-----6---6---------|-
D|---4---4-----6---6-----2-|-
A|-----------------------2-|-
E|-----------------------0-|-
http://www.guitartabcreator.com
Guitar Tab Creator is intended to store guitar tab created through the tool. It currently does not support in-line text editing. Any text you place in here will be lost. If you need to comment on your tab, please use the "Tab Notes" section located below.