Our last song

(/) Slide Up  (\) Slide Down  (h) Hammer On  (p) Pull Off  (b) Bend (r) Release (v) Vibrato
E|-----------------|-----------------|-----------------|-----------------|-
B|-----------------|-----------------|-----------------|-----------------|-
G|-----4---4-------|-----4---4-------|-----1---1-------|-----1---1-------|-
D|---6---6---6---6-|---6---6---6---6-|---2---2---2---2-|---2---2---2---2-|-
A|-4-----------4---|-4-----------4---|-0-----------0---|-0-----------0---|-
E|-----------------|-----------------|-----------------|-----------------|-



E|-----------------|-----------------|-----------------|-----------------|-----------------|-
B|-----------------|-----------------|-----------------|-----------------|-----------------|-
G|-----1---1-------|-----1---1-------|-----4---4-------|-----1---1-------|-----4---4-------|-
D|-------2---2---2-|---2---2---2---2-|---6---6---6---6-|---2---2---2---2-|---4---4---4---4-|-
A|---2-------------|-0-----------0---|-4-----------4---|-0-----------0---|-2-----------2---|-
E|-0-----------0---|-----------------|-----------------|-----------------|-----------------|-



E|--------------------------------|--------------------------------------------------------|--
B|--------------------------------|--------------------------------------------------------|--
G|--------4--2--2--4--6--6--2--4--|--------4--2--2--13--11--9--11--6--6--2--2--4--4--4--4--|--
D|--2--2--4--2--2--4--6--6--2--4--|--2--2--4--2--2-----------------6--6--2--2--4--4--4--4--|--
A|--2--2--2--0--0--2--4--4--0--2--|--2--2--2--0--0--11--9---7--9---4--4--0--0--2--2--2--2--|--
E|--0--0--------------------------|--0--0--------------------------------------------------|--



E|-----------------------------------------------------------------------|-
B|-----------------------------------------------------------------------|-
G|---------------------------------------------------------4-----4-----4-|-
D|---2-1-2-2-1-2-----2-1-2-2-1-2-4---6-4-6-6-4-6-4---2-1-2---4-----4-----|-
A|---------------2-0---------------4---------------0-----------2-----2---|-
E|-0---------------------------------------------------------------------|-



E|------------------------------------------------------|----
B|------------------------------------------------------|----
G|---------4----2----4----6----2----4----4----4----4----|----
D|----2----4----2----4----6----2----4----4----4----4----|----
A|----2----2----0----2----4----0----2----2----2----2----|----
E|----0-------------------------------------------------|----



E|-----------------------------------------------------------------------------------------------|--
B|--------------------------5--4--5--4--5--7--------------------------------5--4--5--7--7--7--7--|--
G|-----9--8--9--8--9--4--2--------------------6--13--11--13--11--13--11--2-----------------------|--
D|--2--------------------2--2--1--2--1--2--4-----------------------------2--2--1--2--4--4--4--4--|--
A|--2--7--6--7--6--7--2--0--------------------4--11--9---11--9---11--9---0-----------------------|--
E|--0--0--0--0--0--0-----------------------------------------------------------------------------|--



E|-----------------------------|----------------------------------------------------------------|----
B|-----------------------------|----------------------------------------------------------------|----
G|---------2----6----2----4----|---------2----6----2----2----4----4----4----4----4----4----4----|----
D|----2----2----6----2----4----|----2----2----6----2----2----4----4----4----4----4----4----4----|----
A|----2----0----4----0----2----|----2----0----4----0----0----2----2----2----2----2----2----2----|----
E|----0------------------------|----0-----------------------------------------------------------|----



E|----------------------------------------------------------------|---
B|----------------------------------------------------------------|---
G|----------------------------------------------------------------|---
D|-----9-7---------------6-7-9-9-9-7-6---------6-7-9-9-9-7-9-11-9-|---
A|-7-7-----9-7-7-7-6-7-9---------------7-6-7-9--------------------|---
E|----------------------------------------------------------------|---



E|---------------------------------------------------------------------------------------------------------------------------|-
B|----------------------------------------------------------------------12-12-12-10-10-10-9-9-9-10-10-10-5-5-5-7-7-7-4-4-4-4-|-
G|-9-9-9-11-11-11-13-13-13-11-11-11-14-14-14-13-13-13-11-11-11-13-13-13------------------------------------------------------|-
D|---------------------------------------------------------------------------------------------------------------------------|-
A|---------------------------------------------------------------------------------------------------------------------------|-
E|---------------------------------------------------------------------------------------------------------------------------|-



E|-------------7-7-5-4---------------7-7-9-7-0-0-4-0-5-0-7-0-5-0-4-0-2-0-4-0-
B|-4-5-4-5-4-5---------5-4-5-4-5-4-5-----------------------------------------
G|---------------------------------------------------------------------------
D|---------------------------------------------------------------------------
A|---------------------------------------------------------------------------
E|---------------------------------------------------------------------------
http://www.guitartabcreator.com
Guitar Tab Creator is intended to store guitar tab created through the tool. It currently does not support in-line text editing. Any text you place in here will be lost. If you need to comment on your tab, please use the "Tab Notes" section located below.